999
DXF file: C:\Users\sesa63760\Dev\_Creo\CAD\MCADDE0000223_3D-CAD\drw0001_1.dxf
999
Pro/ENGINEER 2019471 by Parametric Technology Corporation
  0
SECTION
  2
HEADER
  9
$ACADVER
  1
AC1024
  9
$DWGCODEPAGE
  3
ANSI_1252
  9
$EXTMAX
 10
142.2767021663
 20
201.2199073495
 30
0.0
  9
$EXTMIN
 10
0.0
 20
0.0
 30
0.0
  9
$LIMMIN
 10
0.0
 20
0.0
  9
$LIMMAX
 10
142.2767021663
 20
201.2199073495
  9
$VIEWCTR
 10
71.1383510831
 20
100.6099536747
  9
$VIEWSIZE
 40
201.2199073495
  9
$CLAYER
  8
0
  9
$LTSCALE
 40
13.1165569235
  9
$CELTYPE
  6
BYLAYER
  9
$DIMSCALE
 40
1.0
  9
$DIMASZ
 40
1.6937702639
  9
$DIMEXO
 40
1.0
  9
$DIMDLI
 40
9.0623484199
  9
$DIMEXE
 40
1.0
  9
$DIMCEN
 40
2.1463456784
  9
$DIMLFAC
 40
1.0
  9
$DIMBLK
  1
_FILLED
  9
$DIMALT
 70
0
  9
$DIMALTF
 40
0.0393700787
  9
$DIMTXT
 40
2.3712783694
  9
$DIMTOL
 70
1
  9
$DIMLIM
 70
0
  9
$DIMTFAC
 40
1.0
  9
$DIMTP
 40
0.01
  9
$DIMTM
 40
0.01
  9
$DIMGAP
 40
0.625
  9
$DIMDSEP
 70
46
  9
$AUNITS
 70
0
  9
$PDMODE
 70
3
  9
$PDSIZE
 40
0.3125
  9
$HANDSEED
  5
2F8
  9
$TILEMODE
 70
1
  9
$MEASUREMENT
 70
1
  9
$INSUNITS
 70
4
  0
ENDSEC
  0
SECTION
  2
CLASSES
  0
CLASS
  1
ACDBDICTIONARYWDFLT
  2
AcDbDictionaryWithDefault
  3
AutoCAD 2000
 90
0
 91
1
280
0
281
0
  0
CLASS
  1
ACDBPLACEHOLDER
  2
AcDbPlaceHolder
  3
AutoCAD 2000
 90
0
 91
1
280
0
281
0
  0
CLASS
  1
LAYOUT
  2
AcDbLayout
  3
AutoCAD 2000
 90
0
 91
0
280
0
281
0
  0
ENDSEC
  0
SECTION
  2
TABLES
  0
TABLE
  2
VPORT
  5
8
100
AcDbSymbolTable
 70
2
  0
VPORT
  5
1F4
100
AcDbSymbolTableRecord
100
AcDbViewportTableRecord
  2
*ACTIVE
 70
0
 10
0.0
 20
0.0
 11
1.0
 21
1.0
 12
71.1383510831
 22
100.6099536747
 13
0.0
 23
0.0
 14
1.0
 24
1.0
 15
0.0
 25
0.0
 16
0.0
 26
0.0
 36
1.0
 17
0.0
 27
0.0
 37
0.0
 40
201.2199073495
 41
0.7070707071
 42
50.0
 43
0.0
 44
0.0
 50
0.0
 51
0.0
 71
0
 72
100
 73
1
 74
1
 75
0
 76
0
 77
0
 78
0
  0
ENDTAB
  0
TABLE
  2
LTYPE
  5
5
100
AcDbSymbolTable
 70
6
  0
LTYPE
  5
14
100
AcDbSymbolTableRecord
100
AcDbLinetypeTableRecord
  2
BYBLOCK
 70
0
  3

 72
65
 73
0
 40
0.0
  0
LTYPE
  5
15
100
AcDbSymbolTableRecord
100
AcDbLinetypeTableRecord
  2
BYLAYER
 70
0
  3

 72
65
 73
0
 40
0.0
  0
LTYPE
  5
16
100
AcDbSymbolTableRecord
100
AcDbLinetypeTableRecord
  2
CONTINUOUS
 70
64
  3
Solid line
 72
65
 73
0
 40
0.0
  0
LTYPE
  5
1F5
100
AcDbSymbolTableRecord
100
AcDbLinetypeTableRecord
  2
CENTER
 70
64
  3
____ _ ____ _ ____ _ ____ _ ____ _ ____ _ ____
 72
65
 73
4
 40
0.6
 49
0.375
 74
0
 49
-0.075
 74
0
 49
0.075
 74
0
 49
-0.075
 74
0
  0
LTYPE
  5
1F6
100
AcDbSymbolTableRecord
100
AcDbLinetypeTableRecord
  2
HIDDEN
 70
64
  3
- - - - - - - - - - - - - - - - - - - -
 72
65
 73
2
 40
0.2
 49
0.1
 74
0
 49
-0.1
 74
0
  0
LTYPE
  5
1F7
100
AcDbSymbolTableRecord
100
AcDbLinetypeTableRecord
  2
PHANTOM
 70
64
  3
_____ _ _ _____ _ _ _____ _ _ _____
 72
65
 73
6
 40
0.8
 49
0.45
 74
0
 49
-0.05
 74
0
 49
0.1
 74
0
 49
-0.05
 74
0
 49
0.1
 74
0
 49
-0.05
 74
0
  0
LTYPE
  5
1F8
100
AcDbSymbolTableRecord
100
AcDbLinetypeTableRecord
  2
DOT
 70
64
  3
. . . . . . . . . . . . . . . . . . . .
 72
65
 73
2
 40
0.2
 49
0.1
 74
0
 49
-0.1
 74
0
  0
LTYPE
  5
1F9
100
AcDbSymbolTableRecord
100
AcDbLinetypeTableRecord
  2
DASHED
 70
64
  3
- - - - - - - - - - - - - - - - - - - -
 72
65
 73
2
 40
0.2
 49
0.1
 74
0
 49
-0.1
 74
0
  0
ENDTAB
  0
TABLE
  2
LAYER
  5
2
100
AcDbSymbolTable
 70
36
  0
LAYER
  5
10
100
AcDbSymbolTableRecord
100
AcDbLayerTableRecord
  2
0
 70
0
 62
7
  6
CONTINUOUS
370
-3
390
F
  0
LAYER
  5
1FA
100
AcDbSymbolTableRecord
100
AcDbLayerTableRecord
  2
DEFAULT_1
 70
0
 62
7
  6
CENTER
370
-3
390
F
  0
LAYER
  5
1FB
100
AcDbSymbolTableRecord
100
AcDbLayerTableRecord
  2
DEFAULT_2
 70
0
 62
7
  6
HIDDEN
370
-3
390
F
  0
LAYER
  5
1FC
100
AcDbSymbolTableRecord
100
AcDbLayerTableRecord
  2
DEFAULT_3
 70
0
 62
7
  6
PHANTOM
370
-3
390
F
  0
LAYER
  5
1FD
100
AcDbSymbolTableRecord
100
AcDbLayerTableRecord
  2
00_COMPONENTS
 70
0
 62
7
  6
CONTINUOUS
370
-3
390
F
  0
LAYER
  5
1FE
100
AcDbSymbolTableRecord
100
AcDbLayerTableRecord
  2
01_1_DEFAULT_DATUMS
 70
0
 62
7
  6
CONTINUOUS
370
-3
390
F
  0
LAYER
  5
1FF
100
AcDbSymbolTableRecord
100
AcDbLayerTableRecord
  2
01_PLANES
 70
0
 62
7
  6
CONTINUOUS
370
-3
390
F
  0
LAYER
  5
200
100
AcDbSymbolTableRecord
100
AcDbLayerTableRecord
  2
02_COORD_SYS
 70
0
 62
7
  6
CONTINUOUS
370
-3
390
F
  0
LAYER
  5
201
100
AcDbSymbolTableRecord
100
AcDbLayerTableRecord
  2
03_AXES
 70
0
 62
7
  6
CONTINUOUS
370
-3
390
F
  0
LAYER
  5
202
100
AcDbSymbolTableRecord
100
AcDbLayerTableRecord
  2
04_POINTS
 70
0
 62
7
  6
CONTINUOUS
370
-3
390
F
  0
LAYER
  5
203
100
AcDbSymbolTableRecord
100
AcDbLayerTableRecord
  2
05_CURVES
 70
0
 62
7
  6
CONTINUOUS
370
-3
390
F
  0
LAYER
  5
204
100
AcDbSymbolTableRecord
100
AcDbLayerTableRecord
  2
06_SURFS
 70
0
 62
7
  6
CONTINUOUS
370
-3
390
F
  0
LAYER
  5
205
100
AcDbSymbolTableRecord
100
AcDbLayerTableRecord
  2
07_COSMETICS
 70
0
 62
7
  6
CONTINUOUS
370
-3
390
F
  0
LAYER
  5
206
100
AcDbSymbolTableRecord
100
AcDbLayerTableRecord
  2
10_NOTES
 70
0
 62
7
  6
CONTINUOUS
370
-3
390
F
  0
LAYER
  5
207
100
AcDbSymbolTableRecord
100
AcDbLayerTableRecord
  2
11_NOTES_PUB
 70
0
 62
7
  6
CONTINUOUS
370
-3
390
F
  0
LAYER
  5
208
100
AcDbSymbolTableRecord
100
AcDbLayerTableRecord
  2
13_REF_GTOL
 70
0
 62
7
  6
CONTINUOUS
370
-3
390
F
  0
LAYER
  5
209
100
AcDbSymbolTableRecord
100
AcDbLayerTableRecord
  2
16_MISC
 70
0
 62
7
  6
CONTINUOUS
370
-3
390
F
  0
LAYER
  5
20A
100
AcDbSymbolTableRecord
100
AcDbLayerTableRecord
  2
17_NO_PRINT
 70
0
 62
7
  6
CONTINUOUS
370
-3
390
F
  0
LAYER
  5
20B
100
AcDbSymbolTableRecord
100
AcDbLayerTableRecord
  2
18_DATUM_CAMS_JOINTS
 70
0
 62
7
  6
CONTINUOUS
370
-3
390
F
  0
LAYER
  5
20C
100
AcDbSymbolTableRecord
100
AcDbLayerTableRecord
  2
19_DATUM_FUNCTIONAL
 70
0
 62
7
  6
CONTINUOUS
370
-3
390
F
  0
LAYER
  5
20D
100
AcDbSymbolTableRecord
100
AcDbLayerTableRecord
  2
20_DATUM_KINEMATIC_SCHEME
 70
0
 62
7
  6
CONTINUOUS
370
-3
390
F
  0
ENDTAB
  0
TABLE
  2
STYLE
  5
3
100
AcDbSymbolTable
 70
1
  0
STYLE
  5
11
100
AcDbSymbolTableRecord
100
AcDbTextStyleTableRecord
  2
STANDARD
 70
0
 40
0.0
 41
1.0
 50
0.0
 71
0
 42
0.2
  3
ARIAL.TTF
  4

  0
STYLE
  5
20E
100
AcDbSymbolTableRecord
100
AcDbTextStyleTableRecord
  2
TEXTSTYLE_1
 70
0
 40
0.0
 41
0.8
 50
0.0
 71
0
 42
0.2
  3
gdt
  4

  0
ENDTAB
  0
TABLE
  2
VIEW
  5
6
100
AcDbSymbolTable
 70
0
  0
ENDTAB
  0
TABLE
  2
UCS
  5
7
100
AcDbSymbolTable
 70
0
  0
ENDTAB
  0
TABLE
  2
APPID
  5
9
100
AcDbSymbolTable
 70
1
  0
APPID
  5
20F
100
AcDbSymbolTableRecord
100
AcDbRegAppTableRecord
  2
ACAD
 70
0
  0
ENDTAB
  0
TABLE
  2
BLOCK_RECORD
  5
1
100
AcDbSymbolTable
 70
0
  0
BLOCK_RECORD
  5
210
100
AcDbSymbolTableRecord
100
AcDbBlockTableRecord
  2
*Model_Space
  0
BLOCK_RECORD
  5
211
100
AcDbSymbolTableRecord
100
AcDbBlockTableRecord
  2
*Paper_Space
  0
BLOCK_RECORD
  5
212
100
AcDbSymbolTableRecord
100
AcDbBlockTableRecord
  2
_FILLED
  0
ENDTAB
  0
TABLE
  2
DIMSTYLE
  5
A
100
AcDbSymbolTable
 70
1
100
AcDbDimStyleTable
 71
0
  0
DIMSTYLE
105
213
100
AcDbSymbolTableRecord
100
AcDbDimStyleTableRecord
  2
STANDARD
 70
0
  3

  4

 40
1.0
 41
1.6937702639
 42
1.0
 43
0.38
 44
1.0
 45
0.0
 46
0.0
 47
0.01
 48
0.01
140
2.3712783694
141
0.09
142
0.0
143
25.4
144
1.0
145
0.0
146
1.0
147
0.625
 71
1
 72
0
 73
0
 74
0
 75
0
 76
0
 77
1
 78
8
 79
2
170
0
171
1
172
0
173
0
174
0
175
0
176
0
177
0
178
0
270
2
179
2
271
2
272
2
273
2
274
2
275
0
280
0
281
0
282
0
283
1
284
8
285
0
286
0
287
3
288
0
340
11
278
46
341
212
342
212
343
212
344
212
  0
ENDTAB
  0
ENDSEC
  0
SECTION
  2
BLOCKS
  0
BLOCK
  5
20
100
AcDbEntity
  8
0
100
AcDbBlockBegin
  2
*Model_Space
 70
0
 10
0.0
 20
0.0
 30
0.0
  3
*Model_Space
  1

  0
ENDBLK
  5
21
100
AcDbEntity
  8
0
100
AcDbBlockEnd
  0
BLOCK
  5
1C
100
AcDbEntity
  8
0
100
AcDbBlockBegin
  2
*Paper_Space
 70
0
 10
0.0
 20
0.0
 30
0.0
  3
*Paper_Space
  1

  0
ENDBLK
  5
1D
100
AcDbEntity
  8
0
100
AcDbBlockEnd
  0
BLOCK
  5
214
100
AcDbEntity
  8
0
100
AcDbBlockBegin
  2
_FILLED
 70
64
 10
0.0
 20
0.0
  3
_FILLED
  1

  0
SOLID
  5
215
100
AcDbEntity
  8
0
  6
BYBLOCK
 62
0
100
AcDbTrace
 10
0.0
 20
0.0
 11
-1.0
 21
0.25
 12
-1.0
 22
-0.25
 13
-1.0
 23
-0.25
  0
ENDBLK
  5
216
100
AcDbEntity
  8
0
  6
BYBLOCK
 62
0
100
AcDbBlockEnd
  0
ENDSEC
  0
SECTION
  2
ENTITIES
  0
LINE
  5
217
100
AcDbEntity
  8
0
100
AcDbLine
 62
7
  6
BYLAYER
 10
30.5227140095
 20
145.2852019939
 11
63.0068596829
 21
164.0398202929
  0
LINE
  5
218
100
AcDbEntity
  8
0
100
AcDbLine
 62
7
  6
BYLAYER
 10
42.2599400904
 20
139.7551491955
 11
43.1172650697
 21
140.9748386615
  0
LINE
  5
219
100
AcDbEntity
  8
0
100
AcDbLine
 62
7
  6
BYLAYER
 10
43.1172650697
 20
140.9748386615
 11
43.3644976173
 21
141.2041370331
  0
LINE
  5
21A
100
AcDbEntity
  8
0
100
AcDbLine
 62
7
  6
BYLAYER
 10
29.4805933397
 20
128.4287244886
 11
17.2803181387
 21
121.2619917881
  0
LINE
  5
21B
100
AcDbEntity
  8
0
100
AcDbLine
 62
7
  6
BYLAYER
 10
43.3644949618
 20
141.2041416327
 11
45.5565168572
 21
142.4696985097
  0
LINE
  5
21C
100
AcDbEntity
  8
0
100
AcDbLine
 62
7
  6
BYLAYER
 10
46.6565119326
 20
142.3607450959
 11
44.4644900372
 21
141.0951882189
  0
LINE
  5
21D
100
AcDbEntity
  8
0
100
AcDbLine
 62
7
  6
BYLAYER
 10
44.6480973109
 20
140.9891849081
 11
46.8401192063
 21
142.2547417851
  0
LINE
  5
21E
100
AcDbEntity
  8
0
100
AcDbLine
 62
7
  6
BYLAYER
 10
48.1873441738
 20
140.5787860249
 11
45.9953222785
 21
139.3132291479
  0
LINE
  5
21F
100
AcDbEntity
  8
0
100
AcDbLine
 62
7
  6
BYLAYER
 10
63.3301775042
 20
54.1052996118
 11
63.5137847778
 21
53.9992963011
  0
LINE
  5
220
100
AcDbEntity
  8
0
100
AcDbLine
 62
7
  6
BYLAYER
 10
62.2339949985
 20
142.25074718
 11
58.1327927426
 21
139.2448338608
  0
LINE
  5
221
100
AcDbEntity
  8
0
100
AcDbLine
 62
7
  6
BYLAYER
 10
49.0446691532
 20
138.3691653389
 11
46.8526472578
 21
137.1036084619
  0
LINE
  5
222
100
AcDbEntity
  8
0
100
AcDbLine
 62
7
  6
BYLAYER
 10
68.7393503009
 20
146.0065933956
 11
62.2339949985
 21
142.25074718
  0
LINE
  5
223
100
AcDbEntity
  8
0
100
AcDbLine
 62
7
  6
BYLAYER
 10
64.9209937014
 20
143.2305355288
 11
67.8083432644
 21
144.8975376256
  0
LINE
  5
224
100
AcDbEntity
  8
0
100
AcDbLine
 62
7
  6
BYLAYER
 10
94.1626628456
 20
37.6711667573
 11
30.5227875823
 21
74.4128346641
  0
LINE
  5
225
100
AcDbEntity
  8
0
100
AcDbLine
 62
7
  6
BYLAYER
 10
81.6495413571
 20
48.450166025
 11
18.0096660938
 21
85.1918339318
  0
LINE
  5
226
100
AcDbEntity
  8
0
100
AcDbLine
 62
7
  6
BYLAYER
 10
74.7087502611
 20
54.8806862632
 11
67.9213868248
 21
58.7992837197
  0
LINE
  5
227
100
AcDbEntity
  8
0
100
AcDbLine
 62
7
  6
BYLAYER
 10
67.0423595346
 20
142.0057921014
 11
67.8083432644
 21
142.4480303742
  0
LINE
  5
228
100
AcDbEntity
  8
0
100
AcDbLine
 62
7
  6
BYLAYER
 10
70.2832273024
 20
143.4686949847
 11
67.3958777395
 21
141.801692888
  0
LINE
  5
229
100
AcDbEntity
  8
0
100
AcDbLine
 62
7
  6
BYLAYER
 10
68.2444094096
 20
141.3118039826
 11
71.1317589726
 21
142.9788060793
  0
LINE
  5
22A
100
AcDbEntity
  8
0
100
AcDbLine
 62
7
  6
BYLAYER
 10
60.9282298816
 20
135.4942997823
 11
60.1417625312
 21
135.0402196634
  0
LINE
  5
22B
100
AcDbEntity
  8
0
100
AcDbLine
 62
7
  6
BYLAYER
 10
60.495104371
 20
134.435931348
 11
61.274664097
 21
134.8860232341
  0
LINE
  5
22C
100
AcDbEntity
  8
0
100
AcDbLine
 62
7
  6
BYLAYER
 10
70.3657752428
 20
140.0870605551
 11
71.1317589726
 21
140.5292988279
  0
LINE
  5
22D
100
AcDbEntity
  8
0
100
AcDbLine
 62
7
  6
BYLAYER
 10
73.9601978732
 20
141.3458430612
 11
71.0728483102
 21
139.6788409645
  0
LINE
  5
22E
100
AcDbEntity
  8
0
100
AcDbLine
 62
7
  6
BYLAYER
 10
72.1476550925
 20
139.0583150176
 11
75.0350046554
 21
140.7253171144
  0
LINE
  5
22F
100
AcDbEntity
  8
0
100
AcDbLine
 62
7
  6
BYLAYER
 10
30.3530432272
 20
80.5204648135
 11
65.0014197594
 21
60.516667842
  0
LINE
  5
230
100
AcDbEntity
  8
0
100
AcDbLine
 62
7
  6
BYLAYER
 10
64.9059977314
 20
61.3964507927
 11
31.067257888
 21
80.9328143787
  0
LINE
  5
231
100
AcDbEntity
  8
0
100
AcDbLine
 62
7
  6
BYLAYER
 10
67.6163861433
 20
61.8605656849
 11
74.391788667
 21
57.9488737083
  0
LINE
  5
232
100
AcDbEntity
  8
0
100
AcDbLine
 62
7
  6
BYLAYER
 10
104.1977837402
 20
43.4649119231
 11
104.2580088961
 21
43.4301416997
  0
LINE
  5
233
100
AcDbEntity
  8
0
100
AcDbLine
 62
7
  6
BYLAYER
 10
74.1166260136
 20
61.5037056074
 11
67.3516070711
 21
65.4094027562
  0
LINE
  5
234
100
AcDbEntity
  8
0
100
AcDbLine
 62
7
  6
BYLAYER
 10
64.4637785073
 20
133.4530960096
 11
63.677311157
 21
132.9990158908
  0
LINE
  5
235
100
AcDbEntity
  8
0
100
AcDbLine
 62
7
  6
BYLAYER
 10
64.0306529967
 20
132.3947275754
 11
64.8102127228
 21
132.8448194615
  0
LINE
  5
236
100
AcDbEntity
  8
0
100
AcDbLine
 62
7
  6
BYLAYER
 10
74.2690209256
 20
137.8335715902
 11
75.0350046554
 21
138.275809863
  0
LINE
  5
237
100
AcDbEntity
  8
0
100
AcDbLine
 62
7
  6
BYLAYER
 10
77.863443556
 20
139.0923540963
 11
74.976093993
 21
137.4253519995
  0
LINE
  5
238
100
AcDbEntity
  8
0
100
AcDbLine
 62
7
  6
BYLAYER
 10
75.8246256632
 20
136.9354630941
 11
78.7119752262
 21
138.6024651909
  0
LINE
  5
239
100
AcDbEntity
  8
0
100
AcDbLine
 62
7
  6
BYLAYER
 10
67.999327133
 20
131.411892237
 11
67.2128597827
 21
130.9578121182
  0
LINE
  5
23A
100
AcDbEntity
  8
0
100
AcDbLine
 62
7
  6
BYLAYER
 10
67.5662016225
 20
130.3535238028
 11
68.3457613485
 21
130.8036156889
  0
LINE
  5
23B
100
AcDbEntity
  8
0
100
AcDbLine
 62
7
  6
BYLAYER
 10
77.9459914964
 20
135.7107196667
 11
78.7119752262
 21
136.1529579395
  0
LINE
  5
23C
100
AcDbEntity
  8
0
100
AcDbLine
 62
7
  6
BYLAYER
 10
91.6887236433
 20
54.145090852
 11
93.1206076337
 21
53.3184109466
  0
LINE
  5
23D
100
AcDbEntity
  8
0
100
AcDbLine
 62
7
  6
BYLAYER
 10
67.1935509571
 20
68.5384506377
 11
73.952371568
 21
64.6363320163
  0
LINE
  5
23E
100
AcDbEntity
  8
0
100
AcDbLine
 62
7
  6
BYLAYER
 10
85.038373131
 20
60.3498215134
 11
84.9796911627
 21
60.3837007972
  0
LINE
  5
23F
100
AcDbEntity
  8
0
100
AcDbLine
 62
7
  6
BYLAYER
 10
73.8491097053
 20
68.3006449678
 11
67.0941858003
 21
72.2005138759
  0
LINE
  5
240
100
AcDbEntity
  8
0
100
AcDbLine
 62
7
  6
BYLAYER
 10
72.5012623576
 20
130.949381729
 11
76.6024646135
 21
133.9552950481
  0
LINE
  5
241
100
AcDbEntity
  8
0
100
AcDbLine
 62
7
  6
BYLAYER
 10
81.1868592642
 20
137.17362255
 11
78.2995097012
 21
135.5066204533
  0
LINE
  5
242
100
AcDbEntity
  8
0
100
AcDbLine
 62
7
  6
BYLAYER
 10
76.6024646135
 20
133.9552950481
 11
83.1078199158
 21
137.7111412637
  0
LINE
  5
243
100
AcDbEntity
  8
0
100
AcDbLine
 62
7
  6
BYLAYER
 10
71.5348757588
 20
129.3706884644
 11
70.7484084084
 21
128.9166083456
  0
LINE
  5
244
100
AcDbEntity
  8
0
100
AcDbLine
 62
7
  6
BYLAYER
 10
71.1017502482
 20
128.3123200302
 11
71.8813099742
 21
128.7624119163
  0
LINE
  5
245
100
AcDbEntity
  8
0
100
AcDbLine
 62
7
  6
BYLAYER
 10
74.0568907995
 20
125.0816380204
 11
72.5012623576
 21
124.500237975
  0
LINE
  5
246
100
AcDbEntity
  8
0
100
AcDbLine
 62
7
  6
BYLAYER
 10
85.038373131
 20
64.0742312479
 11
82.09064518
 21
65.7760642733
  0
LINE
  5
247
100
AcDbEntity
  8
0
100
AcDbLine
 62
7
  6
BYLAYER
 10
67.0798746983
 20
75.4081806665
 11
73.8342373788
 21
71.5086357742
  0
LINE
  5
248
100
AcDbEntity
  8
0
100
AcDbLine
 62
7
  6
BYLAYER
 10
61.9829525366
 20
55.7812553721
 11
61.7487254898
 21
56.384938853
  0
LINE
  5
249
100
AcDbEntity
  8
0
100
AcDbLine
 62
7
  6
BYLAYER
 10
83.1078199158
 20
129.6277673342
 11
79.0172486858
 21
127.2660890307
  0
LINE
  5
24A
100
AcDbEntity
  8
0
100
AcDbLine
 62
7
  6
BYLAYER
 10
79.0172486858
 20
127.1191185956
 11
74.8948088466
 21
124.7390410519
  0
LINE
  5
24B
100
AcDbEntity
  8
0
100
AcDbLine
 62
7
  6
BYLAYER
 10
73.9030831959
 20
75.269833692
 11
67.1461225388
 21
79.1708784929
  0
LINE
  5
24C
100
AcDbEntity
  8
0
100
AcDbLine
 62
7
  6
BYLAYER
 10
85.038373131
 20
71.0145017935
 11
82.09064518
 21
72.7163348189
  0
LINE
  5
24D
100
AcDbEntity
  8
0
100
AcDbLine
 62
7
  6
BYLAYER
 10
67.2752679848
 20
82.4697003063
 11
74.0372932122
 21
78.5657315406
  0
LINE
  5
24E
100
AcDbEntity
  8
0
100
AcDbLine
 62
7
  6
BYLAYER
 10
58.1327927426
 20
139.2448338608
 11
58.1327927426
 21
132.7956901068
  0
LINE
  5
24F
100
AcDbEntity
  8
0
100
AcDbLine
 62
7
  6
BYLAYER
 10
81.0958698956
 20
119.4204149715
 11
83.287891791
 21
120.6859718485
  0
LINE
  5
250
100
AcDbEntity
  8
0
100
AcDbLine
 62
7
  6
BYLAYER
 10
84.3878868664
 20
120.5770184347
 11
82.1958649711
 21
119.3114615577
  0
LINE
  5
251
100
AcDbEntity
  8
0
100
AcDbLine
 62
7
  6
BYLAYER
 10
82.3794722448
 20
119.2054582469
 11
84.5714941401
 21
120.4710151239
  0
LINE
  5
252
100
AcDbEntity
  8
0
100
AcDbLine
 62
7
  6
BYLAYER
 10
73.5152915726
 20
83.0682870916
 11
75.9901756106
 21
81.6394444507
  0
LINE
  5
253
100
AcDbEntity
  8
0
100
AcDbLine
 62
7
  6
BYLAYER
 10
76.0243251805
 20
82.1550936293
 11
74.0176686222
 21
83.3136111242
  0
LINE
  5
254
100
AcDbEntity
  8
0
100
AcDbLine
 62
7
  6
BYLAYER
 10
85.038373131
 20
77.9547723391
 11
82.09064518
 21
79.6566053645
  0
LINE
  5
255
100
AcDbEntity
  8
0
100
AcDbLine
 62
7
  6
BYLAYER
 10
76.1274000452
 20
83.597101402
 11
73.6525160071
 21
85.0259440428
  0
LINE
  5
256
100
AcDbEntity
  8
0
100
AcDbLine
 62
7
  6
BYLAYER
 10
64.3903341139
 20
90.8643503701
 11
29.7419575817
 21
110.8681473416
  0
LINE
  5
257
100
AcDbEntity
  8
0
100
AcDbLine
 62
7
  6
BYLAYER
 10
45.9953222785
 20
139.3132291478
 11
46.8526472578
 21
137.1036084619
  0
LINE
  5
258
100
AcDbEntity
  8
0
100
AcDbLine
 62
7
  6
BYLAYER
 10
80.8486400036
 20
119.1911120003
 11
81.0958725511
 21
119.4204103719
  0
LINE
  5
259
100
AcDbEntity
  8
0
100
AcDbLine
 62
7
  6
BYLAYER
 10
85.9187191077
 20
118.7950593637
 11
83.7266972123
 21
117.5295024867
  0
LINE
  5
25A
100
AcDbEntity
  8
0
100
AcDbLine
 62
7
  6
BYLAYER
 10
86.776044087
 20
116.5854386777
 11
84.5840221916
 21
115.3198818007
  0
LINE
  5
25B
100
AcDbEntity
  8
0
100
AcDbLine
 62
7
  6
BYLAYER
 10
17.2803181387
 20
121.2619917881
 11
80.9201934019
 21
84.5203238812
  0
LINE
  5
25C
100
AcDbEntity
  8
0
100
AcDbLine
 62
7
  6
BYLAYER
 10
85.038373131
 20
84.8950428847
 11
77.8612094208
 21
89.0386865431
  0
LINE
  5
25D
100
AcDbEntity
  8
0
100
AcDbLine
 62
7
  6
BYLAYER
 10
85.038373131
 20
84.9235470901
 11
77.8612094208
 21
89.0671907485
  0
LINE
  5
25E
100
AcDbEntity
  8
0
100
AcDbLine
 62
7
  6
BYLAYER
 10
86.4525808054
 20
85.7400353979
 11
79.2754170952
 21
89.8836790562
  0
LINE
  5
25F
100
AcDbEntity
  8
0
100
AcDbLine
 62
7
  6
BYLAYER
 10
49.0446691532
 20
138.3691653389
 11
48.1873441738
 21
140.5787860248
  0
LINE
  5
260
100
AcDbEntity
  8
0
100
AcDbLine
 62
7
  6
BYLAYER
 10
67.8083432644
 20
142.4480303742
 11
67.8083432644
 21
144.8975376256
  0
LINE
  5
261
100
AcDbEntity
  8
0
100
AcDbLine
 62
7
  6
BYLAYER
 10
71.1317589726
 20
140.5292988279
 11
71.1317589726
 21
142.9788060793
  0
LINE
  5
262
100
AcDbEntity
  8
0
100
AcDbLine
 62
7
  6
BYLAYER
 10
72.5012623576
 20
124.500237975
 11
72.5012623576
 21
130.949381729
  0
LINE
  5
263
100
AcDbEntity
  8
0
100
AcDbLine
 62
7
  6
BYLAYER
 10
79.9913150242
 20
117.9714225343
 11
80.8486400036
 21
119.1911120003
  0
LINE
  5
264
100
AcDbEntity
  8
0
100
AcDbLine
 62
7
  6
BYLAYER
 10
31.067257888
 20
80.9328143787
 11
30.3530432272
 21
80.5204648135
  0
LINE
  5
265
100
AcDbEntity
  8
0
100
AcDbLine
 62
7
  6
BYLAYER
 10
74.8948088466
 20
124.7390410519
 11
74.8948088466
 21
124.8860114869
  0
LINE
  5
266
100
AcDbEntity
  8
0
100
AcDbLine
 62
7
  6
BYLAYER
 10
75.0350046554
 20
138.275809863
 11
75.0350046554
 21
140.7253171144
  0
LINE
  5
267
100
AcDbEntity
  8
0
100
AcDbLine
 62
7
  6
BYLAYER
 10
77.8612094208
 20
89.0386865431
 11
77.8612094208
 21
89.0671907485
  0
LINE
  5
268
100
AcDbEntity
  8
0
100
AcDbLine
 62
7
  6
BYLAYER
 10
94.1625892727
 20
108.5435340871
 11
126.6467349461
 21
127.298152386
  0
LINE
  5
269
100
AcDbEntity
  8
0
100
AcDbLine
 62
7
  6
BYLAYER
 10
93.1206078003
 20
91.6871383496
 11
29.480732537
 21
128.4288062564
  0
LINE
  5
26A
100
AcDbEntity
  8
0
100
AcDbLine
 62
7
  6
BYLAYER
 10
78.7119752262
 20
136.1529579395
 11
78.7119752262
 21
138.6024651909
  0
LINE
  5
26B
100
AcDbEntity
  8
0
100
AcDbLine
 62
7
  6
BYLAYER
 10
79.0172486858
 20
127.2660890307
 11
79.0172486858
 21
127.1191185956
  0
LINE
  5
26C
100
AcDbEntity
  8
0
100
AcDbLine
 62
7
  6
BYLAYER
 10
83.1078199158
 20
137.7111412637
 11
83.1078199158
 21
129.6277673342
  0
LINE
  5
26D
100
AcDbEntity
  8
0
100
AcDbLine
 62
7
  6
BYLAYER
 10
126.9202110663
 20
77.9474940376
 11
124.0917553309
 21
79.580466775
  0
LINE
  5
26E
100
AcDbEntity
  8
0
100
AcDbLine
 62
7
  6
BYLAYER
 10
126.9202110663
 20
77.9474940376
 11
127.9808264357
 21
77.3227606444
  0
LINE
  5
26F
100
AcDbEntity
  8
0
100
AcDbLine
 62
7
  6
BYLAYER
 10
85.038373131
 20
60.3498215134
 11
85.038373131
 21
84.9235470901
  0
LINE
  5
270
100
AcDbEntity
  8
0
100
AcDbLine
 62
7
  6
BYLAYER
 10
86.4525808054
 20
85.7400353979
 11
86.4525808054
 21
61.1663098212
  0
LINE
  5
271
100
AcDbEntity
  8
0
100
AcDbLine
 62
7
  6
BYLAYER
 10
77.8612094208
 20
89.0386865431
 11
67.2752679848
 21
82.4697003063
  0
LINE
  5
272
100
AcDbEntity
  8
0
100
AcDbLine
 62
7
  6
BYLAYER
 10
77.8612094208
 20
89.0671907485
 11
79.2754170952
 21
89.8836790562
  0
LINE
  5
273
100
AcDbEntity
  8
0
100
AcDbLine
 62
7
  6
BYLAYER
 10
74.0176686223
 20
83.3136111243
 11
73.5152915726
 21
83.0682870916
  0
LINE
  5
274
100
AcDbEntity
  8
0
100
AcDbLine
 62
7
  6
BYLAYER
 10
83.7266972123
 20
117.5295024866
 11
84.5840221916
 21
115.3198818007
  0
LINE
  5
275
100
AcDbEntity
  8
0
100
AcDbLine
 62
7
  6
BYLAYER
 10
93.1206076337
 20
53.318410946
 11
93.1206072371
 21
54.9573551575
  0
LINE
  5
276
100
AcDbEntity
  8
0
100
AcDbLine
 62
7
  6
BYLAYER
 10
65.0952367922
 20
54.4528733609
 11
64.8610097454
 21
54.1196458585
  0
LINE
  5
277
100
AcDbEntity
  8
0
100
AcDbLine
 62
7
  6
BYLAYER
 10
70.2529456099
 20
77.377193935
 11
67.0798746983
 21
75.4081806665
  0
LINE
  5
278
100
AcDbEntity
  8
0
100
AcDbLine
 62
7
  6
BYLAYER
 10
80.920193402
 20
84.5203238813
 11
93.1204686029
 21
91.6870565817
  0
LINE
  5
279
100
AcDbEntity
  8
0
100
AcDbLine
 62
7
  6
BYLAYER
 10
85.038373131
 20
84.9235470901
 11
86.4525808054
 21
85.7400353979
  0
LINE
  5
27A
100
AcDbEntity
  8
0
100
AcDbLine
 62
7
  6
BYLAYER
 10
124.6572182741
 20
105.8186010718
 11
124.0917553309
 21
105.4921328381
  0
LINE
  5
27B
100
AcDbEntity
  8
0
100
AcDbLine
 62
7
  6
BYLAYER
 10
127.9808264357
 20
106.5127220588
 11
125.3998974298
 21
105.0226308971
  0
LINE
  5
27C
100
AcDbEntity
  8
0
100
AcDbLine
 62
7
  6
BYLAYER
 10
85.038373131
 20
84.8950428847
 11
74.0372932122
 21
78.5657315406
  0
LINE
  5
27D
100
AcDbEntity
  8
0
100
AcDbLine
 62
7
  6
BYLAYER
 10
30.5227140095
 20
145.2852019939
 11
94.1625892728
 21
108.5435340871
  0
LINE
  5
27E
100
AcDbEntity
  8
0
100
AcDbLine
 62
7
  6
BYLAYER
 10
42.2599400904
 20
139.7551491955
 11
46.8526472578
 21
137.1036084619
  0
LINE
  5
27F
100
AcDbEntity
  8
0
100
AcDbLine
 62
7
  6
BYLAYER
 10
79.9913150242
 20
117.9714225343
 11
84.5840221916
 21
115.3198818007
  0
LINE
  5
280
100
AcDbEntity
  8
0
100
AcDbLine
 62
7
  6
BYLAYER
 10
72.5012623576
 20
124.500237975
 11
58.1327927426
 21
132.7956901068
  0
LINE
  5
281
100
AcDbEntity
  8
0
100
AcDbLine
 62
7
  6
BYLAYER
 10
82.3794722448
 20
119.2054582469
 11
82.1958649711
 21
119.3114615577
  0
LINE
  5
282
100
AcDbEntity
  8
0
100
AcDbLine
 62
7
  6
BYLAYER
 10
44.6480973109
 20
140.9891849081
 11
44.4644900372
 21
141.0951882189
  0
LINE
  5
283
100
AcDbEntity
  8
0
100
AcDbLine
 62
7
  6
BYLAYER
 10
74.4674074747
 20
124.9857957667
 11
74.8948088466
 21
124.7390410519
  0
LINE
  5
284
100
AcDbEntity
  8
0
100
AcDbLine
 62
7
  6
BYLAYER
 10
84.5714941401
 20
120.4710151239
 11
84.3878868664
 21
120.5770184347
  0
LINE
  5
285
100
AcDbEntity
  8
0
100
AcDbLine
 62
7
  6
BYLAYER
 10
46.8401192063
 20
142.2547417851
 11
46.6565119326
 21
142.3607450959
  0
LINE
  5
286
100
AcDbEntity
  8
0
100
AcDbLine
 62
7
  6
BYLAYER
 10
86.776044087
 20
116.5854386777
 11
85.9187191077
 21
118.7950593636
  0
LINE
  5
287
100
AcDbEntity
  8
0
100
AcDbLine
 62
7
  6
BYLAYER
 10
70.2027909294
 20
70.4058004697
 11
67.1935509571
 21
68.5384506377
  0
LINE
  5
288
100
AcDbEntity
  8
0
100
AcDbLine
 62
7
  6
BYLAYER
 10
85.038373131
 20
77.9547723391
 11
73.8342373788
 21
71.5086357742
  0
LINE
  5
289
100
AcDbEntity
  8
0
100
AcDbLine
 62
7
  6
BYLAYER
 10
85.038373131
 20
81.2359533436
 11
73.9030831959
 21
75.269833692
  0
LINE
  5
28A
100
AcDbEntity
  8
0
100
AcDbLine
 62
7
  6
BYLAYER
 10
74.8948088466
 20
124.8860114869
 11
74.0568907995
 21
125.0816380204
  0
LINE
  5
28B
100
AcDbEntity
  8
0
100
AcDbLine
 62
7
  6
BYLAYER
 10
72.5012623576
 20
130.949381729
 11
58.1327927426
 21
139.2448338608
  0
LINE
  5
28C
100
AcDbEntity
  8
0
100
AcDbLine
 62
7
  6
BYLAYER
 10
104.2580088961
 20
43.4301416997
 11
104.2580088961
 21
43.4996827256
  0
LINE
  5
28D
100
AcDbEntity
  8
0
100
AcDbLine
 62
7
  6
BYLAYER
 10
64.8610097454
 20
54.1196458585
 11
64.6137771978
 21
53.8903474869
  0
LINE
  5
28E
100
AcDbEntity
  8
0
100
AcDbLine
 62
7
  6
BYLAYER
 10
70.4513795386
 20
63.6197887741
 11
67.6163861433
 21
61.8605656849
  0
LINE
  5
28F
100
AcDbEntity
  8
0
100
AcDbLine
 62
7
  6
BYLAYER
 10
85.038373131
 20
71.0145017935
 11
73.952371568
 21
64.6363320163
  0
LINE
  5
290
100
AcDbEntity
  8
0
100
AcDbLine
 62
7
  6
BYLAYER
 10
85.038373131
 20
74.295682798
 11
73.8491097053
 21
68.3006449678
  0
LINE
  5
291
100
AcDbEntity
  8
0
100
AcDbLine
 62
7
  6
BYLAYER
 10
125.3998974298
 20
105.0226308971
 11
124.3392145132
 21
105.6350026108
  0
LINE
  5
292
100
AcDbEntity
  8
0
100
AcDbLine
 62
7
  6
BYLAYER
 10
76.6024646135
 20
133.9552950481
 11
62.2339949985
 21
142.25074718
  0
LINE
  5
293
100
AcDbEntity
  8
0
100
AcDbLine
 62
7
  6
BYLAYER
 10
78.2995097012
 20
135.5066204533
 11
75.8246256632
 21
136.9354630941
  0
LINE
  5
294
100
AcDbEntity
  8
0
100
AcDbLine
 62
7
  6
BYLAYER
 10
74.976093993
 20
137.4253519995
 11
72.1476550925
 21
139.0583150176
  0
LINE
  5
295
100
AcDbEntity
  8
0
100
AcDbLine
 62
7
  6
BYLAYER
 10
71.0728483102
 20
139.6788409645
 11
68.2444094096
 21
141.3118039826
  0
LINE
  5
296
100
AcDbEntity
  8
0
100
AcDbLine
 62
7
  6
BYLAYER
 10
67.3958777395
 20
141.801692888
 11
64.9209937014
 21
143.2305355288
  0
LINE
  5
297
100
AcDbEntity
  8
0
100
AcDbLine
 62
7
  6
BYLAYER
 10
67.8083432644
 20
142.4480303742
 11
68.1618614693
 21
142.2439311608
  0
LINE
  5
298
100
AcDbEntity
  8
0
100
AcDbLine
 62
7
  6
BYLAYER
 10
71.1317589726
 20
140.5292988279
 11
71.83883204
 21
140.1210792373
  0
LINE
  5
299
100
AcDbEntity
  8
0
100
AcDbLine
 62
7
  6
BYLAYER
 10
75.0350046554
 20
138.275809863
 11
75.7420777228
 21
137.8675902723
  0
LINE
  5
29A
100
AcDbEntity
  8
0
100
AcDbLine
 62
7
  6
BYLAYER
 10
78.7119752262
 20
136.1529579395
 11
79.065493431
 21
135.9488587261
  0
LINE
  5
29B
100
AcDbEntity
  8
0
100
AcDbLine
 62
7
  6
BYLAYER
 10
109.9636983204
 20
46.7243033613
 11
109.9636983204
 21
46.7938443871
  0
LINE
  5
29C
100
AcDbEntity
  8
0
100
AcDbLine
 62
7
  6
BYLAYER
 10
64.8610097454
 20
54.1196458585
 11
65.2667099015
 21
54.3538755547
  0
LINE
  5
29D
100
AcDbEntity
  8
0
100
AcDbLine
 62
7
  6
BYLAYER
 10
64.6137798533
 20
53.8903428872
 11
65.3416789634
 21
54.3105931258
  0
LINE
  5
29E
100
AcDbEntity
  8
0
100
AcDbLine
 62
7
  6
BYLAYER
 10
85.038373131
 20
64.0742312479
 11
74.391788667
 21
57.9488737083
  0
LINE
  5
29F
100
AcDbEntity
  8
0
100
AcDbLine
 62
7
  6
BYLAYER
 10
85.038373131
 20
67.3554122524
 11
74.1166260136
 21
61.5037056074
  0
LINE
  5
2A0
100
AcDbEntity
  8
0
100
AcDbLine
 62
7
  6
BYLAYER
 10
67.8083432644
 20
144.8975376256
 11
70.2832273024
 21
143.4686949847
  0
LINE
  5
2A1
100
AcDbEntity
  8
0
100
AcDbLine
 62
7
  6
BYLAYER
 10
71.1317589726
 20
142.9788060793
 11
73.9601978732
 21
141.3458430612
  0
LINE
  5
2A2
100
AcDbEntity
  8
0
100
AcDbLine
 62
7
  6
BYLAYER
 10
75.0350046554
 20
140.7253171144
 11
77.863443556
 21
139.0923540963
  0
LINE
  5
2A3
100
AcDbEntity
  8
0
100
AcDbLine
 62
7
  6
BYLAYER
 10
78.7119752262
 20
138.6024651909
 11
81.1868592642
 21
137.17362255
  0
LINE
  5
2A4
100
AcDbEntity
  8
0
100
AcDbLine
 62
7
  6
BYLAYER
 10
83.1078199158
 20
137.7111412637
 11
68.7393503009
 21
146.0065933956
  0
LINE
  5
2A5
100
AcDbEntity
  8
0
100
AcDbLine
 62
7
  6
BYLAYER
 10
86.4525808054
 20
61.1663098212
 11
85.038373131
 21
60.3498215134
  0
LINE
  5
2A6
100
AcDbEntity
  8
0
100
AcDbLine
 62
7
  6
BYLAYER
 10
85.038373131
 20
60.4151417068
 11
74.7087502611
 21
54.8806862632
  0
LINE
  5
2A7
100
AcDbEntity
  8
0
100
AcDbLine
 62
7
  6
BYLAYER
 10
125.3998974298
 20
105.0226308971
 11
124.6572182741
 21
105.8186010718
  0
LINE
  5
2A8
100
AcDbEntity
  8
0
100
AcDbLine
 62
7
  6
BYLAYER
 10
124.0917553309
 20
76.3429965466
 11
126.9202110663
 21
77.9474940376
  0
LINE
  5
2A9
100
AcDbEntity
  8
0
100
AcDbLine
 62
7
  6
BYLAYER
 10
93.1206072371
 20
54.9573551575
 11
81.6495413571
 21
48.450166025
  0
LINE
  5
2AA
100
AcDbEntity
  8
0
100
AcDbLine
 62
7
  6
BYLAYER
 10
126.6467349461
 20
127.298152386
 11
63.0068596829
 21
164.0398202929
  0
LINE
  5
2AB
100
AcDbEntity
  8
0
100
AcDbLine
 62
7
  6
BYLAYER
 10
124.0917553309
 20
105.4921328381
 11
124.0917553309
 21
76.3429965466
  0
LINE
  5
2AC
100
AcDbEntity
  8
0
100
AcDbLine
 62
7
  6
BYLAYER
 10
127.9808264357
 20
119.3318100078
 11
127.9808264357
 21
106.5127220588
  0
LINE
  5
2AD
100
AcDbEntity
  8
0
100
AcDbLine
 62
7
  6
BYLAYER
 10
127.9808264357
 20
77.3227606444
 11
127.9808264357
 21
57.1959760621
  0
LINE
  5
2AE
100
AcDbEntity
  8
0
100
AcDbLine
 62
7
  6
BYLAYER
 10
126.6467349461
 20
127.298152386
 11
127.9808264357
 21
119.3318100078
  0
LINE
  5
2AF
100
AcDbEntity
  8
0
100
AcDbLine
 62
7
  6
BYLAYER
 10
127.9808264357
 20
57.1959760621
 11
94.1626628455
 21
37.6711667573
  0
LINE
  5
2B0
100
AcDbEntity
  8
0
100
AcDbLine
 62
7
  6
BYLAYER
 10
104.2580088961
 20
43.4301416997
 11
109.9636983204
 21
46.7243033613
  0
ARC
  5
2B1
100
AcDbEntity
  8
0
100
AcDbCircle
 62
7
  6
BYLAYER
 10
246.1128003465
 20
70.6981223097
 40
170.4741035384
100
AcDbArc
 50
175.6605485339
 51
176.3201286324
  0
ARC
  5
2B2
100
AcDbEntity
  8
0
100
AcDbCircle
 62
7
  6
BYLAYER
 10
243.0807772818
 20
72.1660183137
 40
169.9156067238
100
AcDbArc
 50
175.6594645326
 51
176.3212126337
  0
ARC
  5
2B3
100
AcDbEntity
  8
0
100
AcDbCircle
 62
7
  6
BYLAYER
 10
242.8813084675
 20
72.4554211341
 40
169.2123788368
100
AcDbArc
 50
175.8307364503
 51
176.3208589744
  0
ARC
  5
2B4
100
AcDbEntity
  8
0
100
AcDbCircle
 62
7
  6
BYLAYER
 10
221.367903033
 20
74.4900529467
 40
154.2907055462
100
AcDbArc
 50
179.999046038
 51
180.8502504421
  0
ARC
  5
2B5
100
AcDbEntity
  8
0
100
AcDbCircle
 62
7
  6
BYLAYER
 10
224.593517708
 20
70.5927283201
 40
150.7620625085
100
AcDbArc
 50
179.6519153858
 51
179.9998444666
  0
ARC
  5
2B6
100
AcDbEntity
  8
0
100
AcDbCircle
 62
7
  6
BYLAYER
 10
221.7270582242
 20
70.5857686064
 40
147.8956032078
100
AcDbArc
 50
179.9971452109
 51
180.8853079287
  0
ARC
  5
2B7
100
AcDbEntity
  8
0
100
AcDbCircle
 62
7
  6
BYLAYER
 10
63.9848060463
 20
136.8766749231
 40
3.4458532508
100
AcDbArc
 50
204.4860961066
 51
216.1456001636
  0
ARC
  5
2B8
100
AcDbEntity
  8
0
100
AcDbCircle
 62
7
  6
BYLAYER
 10
67.520354672
 20
134.8354711505
 40
3.4458532508
100
AcDbArc
 50
204.4860961066
 51
216.1456001636
  0
ARC
  5
2B9
100
AcDbEntity
  8
0
100
AcDbCircle
 62
7
  6
BYLAYER
 10
71.0559032977
 20
132.7942673779
 40
3.4458532508
100
AcDbArc
 50
204.4860961066
 51
216.1456001636
  0
ARC
  5
2BA
100
AcDbEntity
  8
0
100
AcDbCircle
 62
7
  6
BYLAYER
 10
74.5914519235
 20
130.7530636053
 40
3.4458532508
100
AcDbArc
 50
204.4860961066
 51
216.1456001636
  0
SPLINE
  5
2BB
100
AcDbEntity
  8
0
100
AcDbSpline
 62
7
  6
BYLAYER
 70
0
 71
3
 72
13
 73
9
 74
0
 42
0.0000001
 43
0.0000001
 44
0.0000000001
 40
0.0
 40
0.0
 40
0.0
 40
0.0
 40
0.2226990743
 40
0.3420672714
 40
0.4662602585
 40
0.5947832577
 40
0.7270440988
 40
1.0
 40
1.0
 40
1.0
 40
1.0
 10
61.4979046363
 20
133.5889427986
 30
0.0
 10
61.4066613394
 20
133.6262359086
 30
0.0
 10
61.2719086896
 20
133.6973413693
 30
0.0
 10
61.1012880755
 20
133.8135757879
 30
0.0
 10
60.9719772495
 20
133.9158075917
 30
0.0
 10
60.8454715684
 20
134.0301362393
 30
0.0
 10
60.6802609595
 20
134.1991524956
 30
0.0
 10
60.5664282192
 20
134.3384165159
 30
0.0
 10
60.495104371
 20
134.435931348
 30
0.0
  0
SPLINE
  5
2BC
100
AcDbEntity
  8
0
100
AcDbSpline
 62
7
  6
BYLAYER
 70
0
 71
3
 72
11
 73
7
 74
0
 42
0.0000001
 43
0.0000001
 44
0.0000000001
 40
0.0
 40
0.0
 40
0.0
 40
0.0
 40
0.2664493821
 40
0.5242151773
 40
0.7697003045
 40
1.0
 40
1.0
 40
1.0
 40
1.0
 10
60.1417625312
 20
135.0402196634
 30
0.0
 10
60.0999180367
 20
135.1321982625
 30
0.0
 10
60.0256516669
 20
135.3169692606
 30
0.0
 10
59.9428535388
 20
135.5973701987
 30
0.0
 10
59.8918059402
 20
135.8713575616
 30
0.0
 10
59.8793440487
 20
136.0519244137
 30
0.0
 10
59.8793440487
 20
136.1392644371
 30
0.0
  0
SPLINE
  5
2BD
100
AcDbEntity
  8
0
100
AcDbSpline
 62
7
  6
BYLAYER
 70
0
 71
3
 72
9
 73
5
 74
0
 42
0.0000001
 43
0.0000001
 44
0.0000000001
 40
0.0
 40
0.0
 40
0.0
 40
0.0
 40
0.257228222
 40
1.0
 40
1.0
 40
1.0
 40
1.0
 10
59.8793440487
 20
136.1392644371
 30
0.0
 10
59.8793440487
 20
136.158958243
 30
0.0
 10
59.8805476764
 20
136.2355109992
 30
0.0
 10
59.8866672213
 20
136.3120184658
 30
0.0
 10
59.8944180103
 20
136.3683555941
 30
0.0
  0
SPLINE
  5
2BE
100
AcDbEntity
  8
0
100
AcDbSpline
 62
7
  6
BYLAYER
 70
0
 71
3
 72
13
 73
9
 74
0
 42
0.0000001
 43
0.0000001
 44
0.0000000001
 40
0.0
 40
0.0
 40
0.0
 40
0.0
 40
0.2226990743
 40
0.3420672714
 40
0.4662602585
 40
0.5947832577
 40
0.7270440988
 40
1.0
 40
1.0
 40
1.0
 40
1.0
 10
65.033453262
 20
131.547739026
 30
0.0
 10
64.9422099651
 20
131.585032136
 30
0.0
 10
64.8074573153
 20
131.6561375967
 30
0.0
 10
64.6368367012
 20
131.7723720153
 30
0.0
 10
64.5075258752
 20
131.8746038191
 30
0.0
 10
64.3810201941
 20
131.9889324667
 30
0.0
 10
64.2158095853
 20
132.157948723
 30
0.0
 10
64.1019768449
 20
132.2972127433
 30
0.0
 10
64.0306529967
 20
132.3947275754
 30
0.0
  0
SPLINE
  5
2BF
100
AcDbEntity
  8
0
100
AcDbSpline
 62
7
  6
BYLAYER
 70
0
 71
3
 72
11
 73
7
 74
0
 42
0.0000001
 43
0.0000001
 44
0.0000000001
 40
0.0
 40
0.0
 40
0.0
 40
0.0
 40
0.2664493821
 40
0.5242151773
 40
0.7697003045
 40
1.0
 40
1.0
 40
1.0
 40
1.0
 10
63.677311157
 20
132.9990158908
 30
0.0
 10
63.6354666624
 20
133.0909944899
 30
0.0
 10
63.5612002926
 20
133.275765488
 30
0.0
 10
63.4784021646
 20
133.5561664261
 30
0.0
 10
63.4273545659
 20
133.830153789
 30
0.0
 10
63.4148926744
 20
134.0107206411
 30
0.0
 10
63.4148926744
 20
134.0980606645
 30
0.0
  0
SPLINE
  5
2C0
100
AcDbEntity
  8
0
100
AcDbSpline
 62
7
  6
BYLAYER
 70
0
 71
3
 72
9
 73
5
 74
0
 42
0.0000001
 43
0.0000001
 44
0.0000000001
 40
0.0
 40
0.0
 40
0.0
 40
0.0
 40
0.257228222
 40
1.0
 40
1.0
 40
1.0
 40
1.0
 10
63.4148926744
 20
134.0980606645
 30
0.0
 10
63.4148926744
 20
134.1177544704
 30
0.0
 10
63.4160963022
 20
134.1943072266
 30
0.0
 10
63.4222158471
 20
134.2708146932
 30
0.0
 10
63.429966636
 20
134.3271518215
 30
0.0
  0
SPLINE
  5
2C1
100
AcDbEntity
  8
0
100
AcDbSpline
 62
7
  6
BYLAYER
 70
0
 71
3
 72
13
 73
9
 74
0
 42
0.0000001
 43
0.0000001
 44
0.0000000001
 40
0.0
 40
0.0
 40
0.0
 40
0.0
 40
0.2226990743
 40
0.3420672714
 40
0.4662602585
 40
0.5947832577
 40
0.7270440988
 40
1.0
 40
1.0
 40
1.0
 40
1.0
 10
68.5690018878
 20
129.5065352534
 30
0.0
 10
68.4777585909
 20
129.5438283634
 30
0.0
 10
68.3430059411
 20
129.6149338241
 30
0.0
 10
68.1723853269
 20
129.7311682427
 30
0.0
 10
68.043074501
 20
129.8334000465
 30
0.0
 10
67.9165688199
 20
129.9477286941
 30
0.0
 10
67.751358211
 20
130.1167449504
 30
0.0
 10
67.6375254707
 20
130.2560089706
 30
0.0
 10
67.5662016225
 20
130.3535238028
 30
0.0
  0
SPLINE
  5
2C2
100
AcDbEntity
  8
0
100
AcDbSpline
 62
7
  6
BYLAYER
 70
0
 71
3
 72
11
 73
7
 74
0
 42
0.0000001
 43
0.0000001
 44
0.0000000001
 40
0.0
 40
0.0
 40
0.0
 40
0.0
 40
0.2664493821
 40
0.5242151773
 40
0.7697003045
 40
1.0
 40
1.0
 40
1.0
 40
1.0
 10
67.2128597827
 20
130.9578121182
 30
0.0
 10
67.1710152882
 20
131.0497907173
 30
0.0
 10
67.0967489183
 20
131.2345617154
 30
0.0
 10
67.0139507903
 20
131.5149626535
 30
0.0
 10
66.9629031916
 20
131.7889500164
 30
0.0
 10
66.9504413001
 20
131.9695168685
 30
0.0
 10
66.9504413001
 20
132.0568568919
 30
0.0
  0
SPLINE
  5
2C3
100
AcDbEntity
  8
0
100
AcDbSpline
 62
7
  6
BYLAYER
 70
0
 71
3
 72
9
 73
5
 74
0
 42
0.0000001
 43
0.0000001
 44
0.0000000001
 40
0.0
 40
0.0
 40
0.0
 40
0.0
 40
0.257228222
 40
1.0
 40
1.0
 40
1.0
 40
1.0
 10
66.9504413001
 20
132.0568568919
 30
0.0
 10
66.9504413001
 20
132.0765506978
 30
0.0
 10
66.9516449279
 20
132.153103454
 30
0.0
 10
66.9577644728
 20
132.2296109206
 30
0.0
 10
66.9655152618
 20
132.2859480489
 30
0.0
  0
SPLINE
  5
2C4
100
AcDbEntity
  8
0
100
AcDbSpline
 62
7
  6
BYLAYER
 70
0
 71
3
 72
13
 73
9
 74
0
 42
0.0000001
 43
0.0000001
 44
0.0000000001
 40
0.0
 40
0.0
 40
0.0
 40
0.0
 40
0.2226990743
 40
0.3420672714
 40
0.4662602585
 40
0.5947832577
 40
0.7270440988
 40
1.0
 40
1.0
 40
1.0
 40
1.0
 10
72.1045505135
 20
127.4653314808
 30
0.0
 10
72.0133072166
 20
127.5026245907
 30
0.0
 10
71.8785545668
 20
127.5737300515
 30
0.0
 10
71.7079339527
 20
127.6899644701
 30
0.0
 10
71.5786231267
 20
127.7921962739
 30
0.0
 10
71.4521174456
 20
127.9065249215
 30
0.0
 10
71.2869068367
 20
128.0755411778
 30
0.0
 10
71.1730740964
 20
128.214805198
 30
0.0
 10
71.1017502482
 20
128.3123200302
 30
0.0
  0
SPLINE
  5
2C5
100
AcDbEntity
  8
0
100
AcDbSpline
 62
7
  6
BYLAYER
 70
0
 71
3
 72
11
 73
7
 74
0
 42
0.0000001
 43
0.0000001
 44
0.0000000001
 40
0.0
 40
0.0
 40
0.0
 40
0.0
 40
0.2664493821
 40
0.5242151773
 40
0.7697003045
 40
1.0
 40
1.0
 40
1.0
 40
1.0
 10
70.7484084084
 20
128.9166083456
 30
0.0
 10
70.7065639139
 20
129.0085869447
 30
0.0
 10
70.6322975441
 20
129.1933579428
 30
0.0
 10
70.549499416
 20
129.4737588809
 30
0.0
 10
70.4984518174
 20
129.7477462438
 30
0.0
 10
70.4859899259
 20
129.9283130959
 30
0.0
 10
70.4859899259
 20
130.0156531193
 30
0.0
  0
SPLINE
  5
2C6
100
AcDbEntity
  8
0
100
AcDbSpline
 62
7
  6
BYLAYER
 70
0
 71
3
 72
9
 73
5
 74
0
 42
0.0000001
 43
0.0000001
 44
0.0000000001
 40
0.0
 40
0.0
 40
0.0
 40
0.0
 40
0.257228222
 40
1.0
 40
1.0
 40
1.0
 40
1.0
 10
70.4859899259
 20
130.0156531193
 30
0.0
 10
70.4859899259
 20
130.0353469252
 30
0.0
 10
70.4871935536
 20
130.1118996814
 30
0.0
 10
70.4933130985
 20
130.188407148
 30
0.0
 10
70.5010638875
 20
130.2447442763
 30
0.0
  0
SPLINE
  5
2C7
100
AcDbEntity
  8
0
100
AcDbSpline
 62
7
  6
BYLAYER
 70
0
 71
3
 72
12
 73
8
 74
0
 42
0.0000001
 43
0.0000001
 44
0.0000000001
 40
0.0
 40
0.0
 40
0.0
 40
0.0
 40
0.1081595891
 40
0.2183590755
 40
0.4513621317
 40
0.7104189549
 40
1.0
 40
1.0
 40
1.0
 40
1.0
 10
71.7334823682
 20
126.7935174423
 30
0.0
 10
71.7662726587
 20
126.8124485476
 30
0.0
 10
71.8293096384
 20
126.8564588384
 30
0.0
 10
71.9424210149
 20
126.9676834375
 30
0.0
 10
72.0544116119
 20
127.1503013317
 30
0.0
 10
72.1323481951
 20
127.4149685552
 30
0.0
 10
72.1477074951
 20
127.6077153516
 30
0.0
 10
72.1477074951
 20
127.7090872473
 30
0.0
  0
SPLINE
  5
2C8
100
AcDbEntity
  8
0
100
AcDbSpline
 62
7
  6
BYLAYER
 70
0
 71
3
 72
21
 73
17
 74
0
 42
0.0000001
 43
0.0000001
 44
0.0000000001
 40
0.0
 40
0.0
 40
0.0
 40
0.0
 40
0.0624007435
 40
0.1287847497
 40
0.1984013188
 40
0.270410747
 40
0.4174483097
 40
0.5616820189
 40
0.6303091828
 40
0.6954244725
 40
0.7563984558
 40
0.8128606998
 40
0.8647835776
 40
0.9125790554
 40
0.9571735076
 40
1.0
 40
1.0
 40
1.0
 40
1.0
 10
61.5410616179
 20
133.8326985651
 30
0.0
 10
61.5410616179
 20
133.9156578678
 30
0.0
 10
61.5298071151
 20
134.0869856747
 30
0.0
 10
61.4835733923
 20
134.3471119641
 30
0.0
 10
61.4083546597
 20
134.613681498
 30
0.0
 10
61.2707166374
 20
134.9723828948
 30
0.0
 10
61.0396539223
 20
135.3992380904
 30
0.0
 10
60.7435487144
 20
135.7784672327
 30
0.0
 10
60.4770079405
 20
136.0352171534
 30
0.0
 10
60.2727630198
 20
136.1951037035
 30
0.0
 10
60.0652200594
 20
136.3220806775
 30
0.0
 10
59.8585723272
 20
136.4134153603
 30
0.0
 10
59.6569340357
 20
136.4669831774
 30
0.0
 10
59.464268559
 20
136.4811615257
 30
0.0
 10
59.284850409
 20
136.4548691963
 30
0.0
 10
59.1761562127
 20
136.4096990199
 30
0.0
 10
59.1268478441
 20
136.3812313881
 30
0.0
  0
SPLINE
  5
2C9
100
AcDbEntity
  8
0
100
AcDbSpline
 62
7
  6
BYLAYER
 70
0
 71
3
 72
21
 73
17
 74
0
 42
0.0000001
 43
0.0000001
 44
0.0000000001
 40
0.0
 40
0.0
 40
0.0
 40
0.0
 40
0.0624007435
 40
0.1287847497
 40
0.1984013188
 40
0.270410747
 40
0.4174483097
 40
0.5616820189
 40
0.6303091828
 40
0.6954244725
 40
0.7563984558
 40
0.8128606998
 40
0.8647835776
 40
0.9125790554
 40
0.9571735076
 40
1.0
 40
1.0
 40
1.0
 40
1.0
 10
65.0766102436
 20
131.7914947925
 30
0.0
 10
65.0766102436
 20
131.8744540952
 30
0.0
 10
65.0653557409
 20
132.0457819021
 30
0.0
 10
65.019122018
 20
132.3059081915
 30
0.0
 10
64.9439032855
 20
132.5724777254
 30
0.0
 10
64.8062652631
 20
132.9311791222
 30
0.0
 10
64.575202548
 20
133.3580343178
 30
0.0
 10
64.2790973401
 20
133.7372634601
 30
0.0
 10
64.0125565663
 20
133.9940133808
 30
0.0
 10
63.8083116456
 20
134.1538999308
 30
0.0
 10
63.6007686852
 20
134.2808769049
 30
0.0
 10
63.3941209529
 20
134.3722115877
 30
0.0
 10
63.1924826614
 20
134.4257794048
 30
0.0
 10
62.9998171847
 20
134.4399577531
 30
0.0
 10
62.8203990347
 20
134.4136654237
 30
0.0
 10
62.7117048384
 20
134.3684952473
 30
0.0
 10
62.6623964699
 20
134.3400276155
 30
0.0
  0
SPLINE
  5
2CA
100
AcDbEntity
  8
0
100
AcDbSpline
 62
7
  6
BYLAYER
 70
0
 71
3
 72
21
 73
17
 74
0
 42
0.0000001
 43
0.0000001
 44
0.0000000001
 40
0.0
 40
0.0
 40
0.0
 40
0.0
 40
0.0624007435
 40
0.1287847497
 40
0.1984013188
 40
0.270410747
 40
0.4174483097
 40
0.5616820189
 40
0.6303091828
 40
0.6954244725
 40
0.7563984558
 40
0.8128606998
 40
0.8647835776
 40
0.9125790554
 40
0.9571735076
 40
1.0
 40
1.0
 40
1.0
 40
1.0
 10
68.6121588693
 20
129.7502910199
 30
0.0
 10
68.6121588693
 20
129.8332503226
 30
0.0
 10
68.6009043666
 20
130.0045781295
 30
0.0
 10
68.5546706438
 20
130.2647044189
 30
0.0
 10
68.4794519112
 20
130.5312739528
 30
0.0
 10
68.3418138888
 20
130.8899753496
 30
0.0
 10
68.1107511737
 20
131.3168305452
 30
0.0
 10
67.8146459658
 20
131.6960596875
 30
0.0
 10
67.548105192
 20
131.9528096082
 30
0.0
 10
67.3438602713
 20
132.1126961582
 30
0.0
 10
67.1363173109
 20
132.2396731323
 30
0.0
 10
66.9296695787
 20
132.3310078151
 30
0.0
 10
66.7280312872
 20
132.3845756322
 30
0.0
 10
66.5353658105
 20
132.3987539805
 30
0.0
 10
66.3559476604
 20
132.3724616511
 30
0.0
 10
66.2472534641
 20
132.3272914747
 30
0.0
 10
66.1979450956
 20
132.2988238429
 30
0.0
  0
SPLINE
  5
2CB
100
AcDbEntity
  8
0
100
AcDbSpline
 62
7
  6
BYLAYER
 70
0
 71
3
 72
21
 73
17
 74
0
 42
0.0000001
 43
0.0000001
 44
0.0000000001
 40
0.0
 40
0.0
 40
0.0
 40
0.0
 40
0.0624007435
 40
0.1287847497
 40
0.1984013188
 40
0.270410747
 40
0.4174483097
 40
0.5616820189
 40
0.6303091828
 40
0.6954244725
 40
0.7563984558
 40
0.8128606998
 40
0.8647835776
 40
0.9125790554
 40
0.9571735076
 40
1.0
 40
1.0
 40
1.0
 40
1.0
 10
72.1477074951
 20
127.7090872473
 30
0.0
 10
72.1477074951
 20
127.79204655
 30
0.0
 10
72.1364529923
 20
127.9633743569
 30
0.0
 10
72.0902192695
 20
128.2235006463
 30
0.0
 10
72.0150005369
 20
128.4900701802
 30
0.0
 10
71.8773625146
 20
128.848771577
 30
0.0
 10
71.6462997995
 20
129.2756267726
 30
0.0
 10
71.3501945916
 20
129.6548559149
 30
0.0
 10
71.0836538177
 20
129.9116058356
 30
0.0
 10
70.879408897
 20
130.0714923856
 30
0.0
 10
70.6718659366
 20
130.1984693597
 30
0.0
 10
70.4652182044
 20
130.2898040425
 30
0.0
 10
70.2635799129
 20
130.3433718596
 30
0.0
 10
70.0709144362
 20
130.3575502079
 30
0.0
 10
69.8914962862
 20
130.3312578785
 30
0.0
 10
69.7828020899
 20
130.2860877021
 30
0.0
 10
69.7334937213
 20
130.2576200703
 30
0.0
  0
SPLINE
  5
2CC
100
AcDbEntity
  8
0
100
AcDbSpline
 62
7
  6
BYLAYER
 70
0
 71
3
 72
12
 73
8
 74
0
 42
0.0000001
 43
0.0000001
 44
0.0000000001
 40
0.0
 40
0.0
 40
0.0
 40
0.0
 40
0.1081595891
 40
0.2183590755
 40
0.4513621317
 40
0.7104189549
 40
1.0
 40
1.0
 40
1.0
 40
1.0
 10
68.1979337425
 20
128.8347212149
 30
0.0
 10
68.2307240329
 20
128.8536523202
 30
0.0
 10
68.2937610127
 20
128.897662611
 30
0.0
 10
68.4068723892
 20
129.0088872101
 30
0.0
 10
68.5188629862
 20
129.1915051043
 30
0.0
 10
68.5967995694
 20
129.4561723278
 30
0.0
 10
68.6121588693
 20
129.6489191242
 30
0.0
 10
68.6121588693
 20
129.7502910199
 30
0.0
  0
SPLINE
  5
2CD
100
AcDbEntity
  8
0
100
AcDbSpline
 62
7
  6
BYLAYER
 70
0
 71
3
 72
12
 73
8
 74
0
 42
0.0000001
 43
0.0000001
 44
0.0000000001
 40
0.0
 40
0.0
 40
0.0
 40
0.0
 40
0.1081595891
 40
0.2183590755
 40
0.4513621317
 40
0.7104189549
 40
1.0
 40
1.0
 40
1.0
 40
1.0
 10
64.6623851167
 20
130.8759249875
 30
0.0
 10
64.6951754072
 20
130.8948560928
 30
0.0
 10
64.758212387
 20
130.9388663836
 30
0.0
 10
64.8713237634
 20
131.0500909827
 30
0.0
 10
64.9833143604
 20
131.2327088769
 30
0.0
 10
65.0612509436
 20
131.4973761004
 30
0.0
 10
65.0766102436
 20
131.6901228968
 30
0.0
 10
65.0766102436
 20
131.7914947925
 30
0.0
  0
SPLINE
  5
2CE
100
AcDbEntity
  8
0
100
AcDbSpline
 62
7
  6
BYLAYER
 70
0
 71
3
 72
12
 73
8
 74
0
 42
0.0000001
 43
0.0000001
 44
0.0000000001
 40
0.0
 40
0.0
 40
0.0
 40
0.0
 40
0.1081595891
 40
0.2183590755
 40
0.4513621317
 40
0.7104189549
 40
1.0
 40
1.0
 40
1.0
 40
1.0
 10
61.126836491
 20
132.9171287601
 30
0.0
 10
61.1596267815
 20
132.9360598654
 30
0.0
 10
61.2226637612
 20
132.9800701562
 30
0.0
 10
61.3357751377
 20
133.0912947553
 30
0.0
 10
61.4477657347
 20
133.2739126495
 30
0.0
 10
61.5257023179
 20
133.538579873
 30
0.0
 10
61.5410616179
 20
133.7313266694
 30
0.0
 10
61.5410616179
 20
133.8326985651
 30
0.0
  0
SPLINE
  5
2CF
100
AcDbEntity
  8
0
100
AcDbSpline
 62
7
  6
BYLAYER
 70
0
 71
3
 72
12
 73
8
 74
0
 42
0.0000001
 43
0.0000001
 44
0.0000000001
 40
0.0
 40
0.0
 40
0.0
 40
0.0
 40
0.1081595891
 40
0.2183590755
 40
0.4513621317
 40
0.7104189549
 40
1.0
 40
1.0
 40
1.0
 40
1.0
 10
66.1979450956
 20
132.2988238429
 30
0.0
 10
66.1651548051
 20
132.2798927377
 30
0.0
 10
66.1021178254
 20
132.2358824468
 30
0.0
 10
65.9890064489
 20
132.1246578477
 30
0.0
 10
65.8770158519
 20
131.9420399535
 30
0.0
 10
65.7990792687
 20
131.67737273
 30
0.0
 10
65.7837199687
 20
131.4846259337
 30
0.0
 10
65.7837199687
 20
131.383254038
 30
0.0
  0
SPLINE
  5
2D0
100
AcDbEntity
  8
0
100
AcDbSpline
 62
7
  6
BYLAYER
 70
0
 71
3
 72
21
 73
17
 74
0
 42
0.0000001
 43
0.0000001
 44
0.0000000001
 40
0.0
 40
0.0
 40
0.0
 40
0.0
 40
0.0624007435
 40
0.1287847497
 40
0.1984013188
 40
0.270410747
 40
0.4174483097
 40
0.5616820189
 40
0.6303091828
 40
0.6954244725
 40
0.7563984558
 40
0.8128606998
 40
0.8647835776
 40
0.9125790554
 40
0.9571735076
 40
1.0
 40
1.0
 40
1.0
 40
1.0
 10
58.7126227173
 20
135.4656615832
 30
0.0
 10
58.7126227173
 20
135.3827022804
 30
0.0
 10
58.72387722
 20
135.2113744736
 30
0.0
 10
58.7701109428
 20
134.9512481842
 30
0.0
 10
58.8453296754
 20
134.6846786502
 30
0.0
 10
58.9829676978
 20
134.3259772534
 30
0.0
 10
59.2140304128
 20
133.8991220579
 30
0.0
 10
59.5101356207
 20
133.5198929156
 30
0.0
 10
59.7766763946
 20
133.2631429949
 30
0.0
 10
59.9809213153
 20
133.1032564448
 30
0.0
 10
60.1884642757
 20
132.9762794707
 30
0.0
 10
60.3951120079
 20
132.884944788
 30
0.0
 10
60.5967502994
 20
132.8313769709
 30
0.0
 10
60.7894157761
 20
132.8171986225
 30
0.0
 10
60.9688339261
 20
132.843490952
 30
0.0
 10
61.0775281225
 20
132.8886611284
 30
0.0
 10
61.126836491
 20
132.9171287601
 30
0.0
  0
SPLINE
  5
2D1
100
AcDbEntity
  8
0
100
AcDbSpline
 62
7
  6
BYLAYER
 70
0
 71
3
 72
12
 73
8
 74
0
 42
0.0000001
 43
0.0000001
 44
0.0000000001
 40
0.0
 40
0.0
 40
0.0
 40
0.0
 40
0.1081595891
 40
0.2183590755
 40
0.4513621317
 40
0.7104189549
 40
1.0
 40
1.0
 40
1.0
 40
1.0
 10
62.6623964699
 20
134.3400276155
 30
0.0
 10
62.6296061794
 20
134.3210965103
 30
0.0
 10
62.5665691996
 20
134.2770862194
 30
0.0
 10
62.4534578232
 20
134.1658616203
 30
0.0
 10
62.3414672262
 20
133.9832437261
 30
0.0
 10
62.263530643
 20
133.7185765026
 30
0.0
 10
62.248171343
 20
133.5258297063
 30
0.0
 10
62.248171343
 20
133.4244578106
 30
0.0
  0
SPLINE
  5
2D2
100
AcDbEntity
  8
0
100
AcDbSpline
 62
7
  6
BYLAYER
 70
0
 71
3
 72
21
 73
17
 74
0
 42
0.0000001
 43
0.0000001
 44
0.0000000001
 40
0.0
 40
0.0
 40
0.0
 40
0.0
 40
0.0624007435
 40
0.1287847497
 40
0.1984013188
 40
0.270410747
 40
0.4174483097
 40
0.5616820189
 40
0.6303091828
 40
0.6954244725
 40
0.7563984558
 40
0.8128606998
 40
0.8647835776
 40
0.9125790554
 40
0.9571735076
 40
1.0
 40
1.0
 40
1.0
 40
1.0
 10
65.7837199687
 20
131.383254038
 30
0.0
 10
65.7837199687
 20
131.3002947352
 30
0.0
 10
65.7949744715
 20
131.1289669284
 30
0.0
 10
65.8412081943
 20
130.868840639
 30
0.0
 10
65.9164269268
 20
130.602271105
 30
0.0
 10
66.0540649492
 20
130.2435697082
 30
0.0
 10
66.2851276643
 20
129.8167145127
 30
0.0
 10
66.5812328722
 20
129.4374853704
 30
0.0
 10
66.847773646
 20
129.1807354497
 30
0.0
 10
67.0520185667
 20
129.0208488996
 30
0.0
 10
67.2595615272
 20
128.8938719255
 30
0.0
 10
67.4662092594
 20
128.8025372428
 30
0.0
 10
67.6678475509
 20
128.7489694257
 30
0.0
 10
67.8605130276
 20
128.7347910773
 30
0.0
 10
68.0399311776
 20
128.7610834068
 30
0.0
 10
68.1486253739
 20
128.8062535832
 30
0.0
 10
68.1979337425
 20
128.8347212149
 30
0.0
  0
SPLINE
  5
2D3
100
AcDbEntity
  8
0
100
AcDbSpline
 62
7
  6
BYLAYER
 70
0
 71
3
 72
21
 73
17
 74
0
 42
0.0000001
 43
0.0000001
 44
0.0000000001
 40
0.0
 40
0.0
 40
0.0
 40
0.0
 40
0.0624007435
 40
0.1287847497
 40
0.1984013188
 40
0.270410747
 40
0.4174483097
 40
0.5616820189
 40
0.6303091828
 40
0.6954244725
 40
0.7563984558
 40
0.8128606998
 40
0.8647835776
 40
0.9125790554
 40
0.9571735076
 40
1.0
 40
1.0
 40
1.0
 40
1.0
 10
69.3192685945
 20
129.3420502654
 30
0.0
 10
69.3192685945
 20
129.2590909626
 30
0.0
 10
69.3305230972
 20
129.0877631558
 30
0.0
 10
69.37675682
 20
128.8276368664
 30
0.0
 10
69.4519755526
 20
128.5610673324
 30
0.0
 10
69.589613575
 20
128.2023659356
 30
0.0
 10
69.82067629
 20
127.7755107401
 30
0.0
 10
70.1167814979
 20
127.3962815978
 30
0.0
 10
70.3833222718
 20
127.1395316771
 30
0.0
 10
70.5875671925
 20
126.979645127
 30
0.0
 10
70.7951101529
 20
126.8526681529
 30
0.0
 10
71.0017578851
 20
126.7613334702
 30
0.0
 10
71.2033961766
 20
126.7077656531
 30
0.0
 10
71.3960616533
 20
126.6935873047
 30
0.0
 10
71.5754798033
 20
126.7198796342
 30
0.0
 10
71.6841739997
 20
126.7650498106
 30
0.0
 10
71.7334823682
 20
126.7935174423
 30
0.0
  0
SPLINE
  5
2D4
100
AcDbEntity
  8
0
100
AcDbSpline
 62
7
  6
BYLAYER
 70
0
 71
3
 72
12
 73
8
 74
0
 42
0.0000001
 43
0.0000001
 44
0.0000000001
 40
0.0
 40
0.0
 40
0.0
 40
0.0
 40
0.1081595891
 40
0.2183590755
 40
0.4513621317
 40
0.7104189549
 40
1.0
 40
1.0
 40
1.0
 40
1.0
 10
59.1268478441
 20
136.3812313881
 30
0.0
 10
59.0940575536
 20
136.3623002829
 30
0.0
 10
59.0310205739
 20
136.318289992
 30
0.0
 10
58.9179091974
 20
136.2070653929
 30
0.0
 10
58.8059186004
 20
136.0244474987
 30
0.0
 10
58.7279820172
 20
135.7597802752
 30
0.0
 10
58.7126227173
 20
135.5670334789
 30
0.0
 10
58.7126227173
 20
135.4656615832
 30
0.0
  0
SPLINE
  5
2D5
100
AcDbEntity
  8
0
100
AcDbSpline
 62
7
  6
BYLAYER
 70
0
 71
3
 72
12
 73
8
 74
0
 42
0.0000001
 43
0.0000001
 44
0.0000000001
 40
0.0
 40
0.0
 40
0.0
 40
0.0
 40
0.1081595891
 40
0.2183590755
 40
0.4513621317
 40
0.7104189549
 40
1.0
 40
1.0
 40
1.0
 40
1.0
 10
69.7334937213
 20
130.2576200703
 30
0.0
 10
69.7007034308
 20
130.2386889651
 30
0.0
 10
69.6376664511
 20
130.1946786742
 30
0.0
 10
69.5245550746
 20
130.0834540751
 30
0.0
 10
69.4125644776
 20
129.9008361809
 30
0.0
 10
69.3346278944
 20
129.6361689574
 30
0.0
 10
69.3192685945
 20
129.4434221611
 30
0.0
 10
69.3192685945
 20
129.3420502654
 30
0.0
  0
SPLINE
  5
2D6
100
AcDbEntity
  8
0
100
AcDbSpline
 62
7
  6
BYLAYER
 70
0
 71
3
 72
21
 73
17
 74
0
 42
0.0000001
 43
0.0000001
 44
0.0000000001
 40
0.0
 40
0.0
 40
0.0
 40
0.0
 40
0.0624007435
 40
0.1287847497
 40
0.1984013188
 40
0.270410747
 40
0.4174483097
 40
0.5616820189
 40
0.6303091828
 40
0.6954244725
 40
0.7563984558
 40
0.8128606998
 40
0.8647835776
 40
0.9125790554
 40
0.9571735076
 40
1.0
 40
1.0
 40
1.0
 40
1.0
 10
62.248171343
 20
133.4244578106
 30
0.0
 10
62.248171343
 20
133.3414985078
 30
0.0
 10
62.2594258457
 20
133.170170701
 30
0.0
 10
62.3056595685
 20
132.9100444116
 30
0.0
 10
62.3808783011
 20
132.6434748776
 30
0.0
 10
62.5185163235
 20
132.2847734808
 30
0.0
 10
62.7495790386
 20
131.8579182853
 30
0.0
 10
63.0456842465
 20
131.478689143
 30
0.0
 10
63.3122250203
 20
131.2219392223
 30
0.0
 10
63.516469941
 20
131.0620526722
 30
0.0
 10
63.7240129014
 20
130.9350756981
 30
0.0
 10
63.9306606337
 20
130.8437410154
 30
0.0
 10
64.1322989252
 20
130.7901731983
 30
0.0
 10
64.3249644018
 20
130.7759948499
 30
0.0
 10
64.5043825519
 20
130.8022871794
 30
0.0
 10
64.6130767482
 20
130.8474573558
 30
0.0
 10
64.6623851167
 20
130.8759249875
 30
0.0
  0
SPLINE
  5
2D7
100
AcDbEntity
  8
0
100
AcDbSpline
 62
7
  6
BYLAYER
 70
0
 71
3
 72
11
 73
7
 74
0
 42
0.0000001
 43
0.0000001
 44
0.0000000001
 40
0.0
 40
0.0
 40
0.0
 40
0.0
 40
0.2499428928
 40
0.437212232
 40
0.6243380283
 40
1.0
 40
1.0
 40
1.0
 40
1.0
 10
67.0771975082
 20
74.4926218527
 30
0.0
 10
67.0771975082
 20
74.5689015532
 30
0.0
 10
67.0778688557
 20
74.70233281
 30
0.0
 10
67.0780143505
 20
74.8928735723
 30
0.0
 10
67.0774944753
 20
75.1217833555
 30
0.0
 10
67.0792054539
 20
75.2935349003
 30
0.0
 10
67.0798746983
 20
75.4081806665
 30
0.0
  0
SPLINE
  5
2D8
100
AcDbEntity
  8
0
100
AcDbSpline
 62
7
  6
BYLAYER
 70
0
 71
3
 72
9
 73
5
 74
0
 42
0.0000001
 43
0.0000001
 44
0.0000000001
 40
0.0
 40
0.0
 40
0.0
 40
0.0
 40
0.2563738875
 40
1.0
 40
1.0
 40
1.0
 40
1.0
 10
30.5227140095
 20
145.2852019939
 30
0.0
 10
30.3506598335
 20
143.8517465878
 30
0.0
 10
29.7571600611
 20
138.251638864
 30
0.0
 10
29.4803792116
 20
132.6163811392
 30
0.0
 10
29.4805933397
 20
128.4287244886
 30
0.0
  0
SPLINE
  5
2D9
100
AcDbEntity
  8
0
100
AcDbSpline
 62
7
  6
BYLAYER
 70
0
 71
3
 72
9
 73
5
 74
0
 42
0.0000001
 43
0.0000001
 44
0.0000000001
 40
0.0
 40
0.0
 40
0.0
 40
0.0
 40
0.2551461121
 40
1.0
 40
1.0
 40
1.0
 40
1.0
 10
17.2803181387
 20
121.2619917881
 30
0.0
 10
17.1522016057
 20
119.930278313
 30
0.0
 10
16.7089996419
 20
114.7054585041
 30
0.0
 10
16.5057343836
 20
109.4595290496
 30
0.0
 10
16.5057343836
 20
105.5538779904
 30
0.0
  0
SPLINE
  5
2DA
100
AcDbEntity
  8
0
100
AcDbSpline
 62
7
  6
BYLAYER
 70
0
 71
3
 72
9
 73
5
 74
0
 42
0.0000001
 43
0.0000001
 44
0.0000000001
 40
0.0
 40
0.0
 40
0.0
 40
0.0
 40
0.5109465362
 40
1.0
 40
1.0
 40
1.0
 40
1.0
 10
16.5057343836
 20
105.5538779904
 30
0.0
 10
16.5057343836
 20
102.0738837423
 30
0.0
 10
16.7409244284
 20
95.2603736006
 30
0.0
 10
17.4980847747
 20
88.4831964978
 30
0.0
 10
18.0096660939
 20
85.1918339318
 30
0.0
  0
SPLINE
  5
2DB
100
AcDbEntity
  8
0
100
AcDbSpline
 62
7
  6
BYLAYER
 70
0
 71
3
 72
9
 73
5
 74
0
 42
0.0000001
 43
0.0000001
 44
0.0000000001
 40
0.0
 40
0.0
 40
0.0
 40
0.0
 40
0.2519412604
 40
1.0
 40
1.0
 40
1.0
 40
1.0
 10
30.0662470702
 20
78.2035474716
 30
0.0
 10
30.0987847273
 20
77.88454631
 30
0.0
 10
30.2336240257
 20
76.6189618187
 30
0.0
 10
30.3913889848
 20
75.3558097262
 30
0.0
 10
30.5227875823
 20
74.4128346641
 30
0.0
  0
SPLINE
  5
2DC
100
AcDbEntity
  8
0
100
AcDbSpline
 62
7
  6
BYLAYER
 70
0
 71
3
 72
11
 73
7
 74
0
 42
0.0000001
 43
0.0000001
 44
0.0000000001
 40
0.0
 40
0.0
 40
0.0
 40
0.0
 40
0.217802755
 40
0.4509154285
 40
0.7103023347
 40
1.0
 40
1.0
 40
1.0
 40
1.0
 10
64.6137772044
 20
53.8903474754
 30
0.0
 10
64.5412127057
 20
53.8484278532
 30
0.0
 10
64.3744595122
 20
53.7879249827
 30
0.0
 10
64.0975128361
 20
53.7809570444
 30
0.0
 10
63.8023492811
 20
53.8521985797
 30
0.0
 10
63.6103168785
 20
53.9435647276
 30
0.0
 10
63.5137847778
 20
53.9992963011
 30
0.0
  0
SPLINE
  5
2DD
100
AcDbEntity
  8
0
100
AcDbSpline
 62
7
  6
BYLAYER
 70
0
 71
3
 72
9
 73
5
 74
0
 42
0.0000001
 43
0.0000001
 44
0.0000000001
 40
0.0
 40
0.0
 40
0.0
 40
0.0
 40
0.257064036
 40
1.0
 40
1.0
 40
1.0
 40
1.0
 10
63.8820859685
 20
78.2017474375
 30
0.0
 10
63.8820859685
 20
76.6827147852
 30
0.0
 10
63.9713401248
 20
70.7741695838
 30
0.0
 10
64.4265099503
 20
64.8689892222
 30
0.0
 10
65.0014197594
 20
60.516667842
 30
0.0
  0
SPLINE
  5
2DE
100
AcDbEntity
  8
0
100
AcDbSpline
 62
7
  6
BYLAYER
 70
0
 71
3
 72
9
 73
5
 74
0
 42
0.0000001
 43
0.0000001
 44
0.0000000001
 40
0.0
 40
0.0
 40
0.0
 40
0.0
 40
0.2542240983
 40
1.0
 40
1.0
 40
1.0
 40
1.0
 10
64.390334114
 20
90.8643503701
 30
0.0
 10
64.3061442924
 20
89.7935916897
 30
0.0
 10
64.0142926772
 20
85.5787661149
 30
0.0
 10
63.8820859685
 20
81.3525524483
 30
0.0
 10
63.8820859685
 20
78.2017474375
 30
0.0
  0
SPLINE
  5
2DF
100
AcDbEntity
  8
0
100
AcDbSpline
 62
7
  6
BYLAYER
 70
0
 71
3
 72
11
 73
7
 74
0
 42
0.0000001
 43
0.0000001
 44
0.0000000001
 40
0.0
 40
0.0
 40
0.0
 40
0.0
 40
0.2896976653
 40
0.5490845715
 40
0.782197245
 40
1.0
 40
1.0
 40
1.0
 40
1.0
 10
46.6565119326
 20
142.3607450959
 30
0.0
 10
46.5599798319
 20
142.4164766694
 30
0.0
 10
46.3679474294
 20
142.5078428173
 30
0.0
 10
46.0727838744
 20
142.5790843526
 30
0.0
 10
45.7958371982
 20
142.5721164143
 30
0.0
 10
45.6290840048
 20
142.5116135438
 30
0.0
 10
45.556519506
 20
142.4696939216
 30
0.0
  0
SPLINE
  5
2E0
100
AcDbEntity
  8
0
100
AcDbSpline
 62
7
  6
BYLAYER
 70
0
 71
3
 72
11
 73
7
 74
0
 42
0.0000001
 43
0.0000001
 44
0.0000000001
 40
0.0
 40
0.0
 40
0.0
 40
0.0
 40
0.2279721954
 40
0.4775428193
 40
0.7387711519
 40
1.0
 40
1.0
 40
1.0
 40
1.0
 10
63.3301775042
 20
54.1052996118
 30
0.0
 10
63.1863168782
 20
54.188355704
 30
0.0
 10
62.9051902912
 20
54.3981447304
 30
0.0
 10
62.5357482028
 20
54.7926606495
 30
0.0
 10
62.2179410473
 20
55.2593428631
 30
0.0
 10
62.0518058376
 20
55.6037967865
 30
0.0
 10
61.9829525366
 20
55.7812553721
 30
0.0
  0
SPLINE
  5
2E1
100
AcDbEntity
  8
0
100
AcDbSpline
 62
7
  6
BYLAYER
 70
0
 71
3
 72
11
 73
7
 74
0
 42
0.0000001
 43
0.0000001
 44
0.0000000001
 40
0.0
 40
0.0
 40
0.0
 40
0.0
 40
0.2612288481
 40
0.5224571807
 40
0.7720278046
 40
1.0
 40
1.0
 40
1.0
 40
1.0
 10
48.1873441738
 20
140.5787860248
 30
0.0
 10
48.1184908728
 20
140.7562446104
 30
0.0
 10
47.9523556631
 20
141.1006985338
 30
0.0
 10
47.6345485076
 20
141.5673807474
 30
0.0
 10
47.2651064193
 20
141.9618966666
 30
0.0
 10
46.9839798322
 20
142.171685693
 30
0.0
 10
46.8401192063
 20
142.2547417851
 30
0.0
  0
SPLINE
  5
2E2
100
AcDbEntity
  8
0
100
AcDbSpline
 62
7
  6
BYLAYER
 70
0
 71
3
 72
11
 73
7
 74
0
 42
0.0000001
 43
0.0000001
 44
0.0000000001
 40
0.0
 40
0.0
 40
0.0
 40
0.0
 40
0.2896976653
 40
0.5490845715
 40
0.782197245
 40
1.0
 40
1.0
 40
1.0
 40
1.0
 10
84.3878868664
 20
120.5770184347
 30
0.0
 10
84.2913547658
 20
120.6327500082
 30
0.0
 10
84.0993223632
 20
120.7241161561
 30
0.0
 10
83.8041588082
 20
120.7953576914
 30
0.0
 10
83.5272121321
 20
120.7883897531
 30
0.0
 10
83.3604589386
 20
120.7278868826
 30
0.0
 10
83.2878944398
 20
120.6859672604
 30
0.0
  0
SPLINE
  5
2E3
100
AcDbEntity
  8
0
100
AcDbSpline
 62
7
  6
BYLAYER
 70
0
 71
3
 72
11
 73
7
 74
0
 42
0.0000001
 43
0.0000001
 44
0.0000000001
 40
0.0
 40
0.0
 40
0.0
 40
0.0
 40
0.2612288481
 40
0.5224571807
 40
0.7720278046
 40
1.0
 40
1.0
 40
1.0
 40
1.0
 10
85.9187191077
 20
118.7950593636
 30
0.0
 10
85.8498658067
 20
118.9725179492
 30
0.0
 10
85.683730597
 20
119.3169718726
 30
0.0
 10
85.3659234415
 20
119.7836540862
 30
0.0
 10
84.9964813531
 20
120.1781700054
 30
0.0
 10
84.7153547661
 20
120.3879590318
 30
0.0
 10
84.5714941401
 20
120.4710151239
 30
0.0
  0
SPLINE
  5
2E4
100
AcDbEntity
  8
0
100
AcDbSpline
 62
7
  6
BYLAYER
 70
0
 71
3
 72
11
 73
7
 74
0
 42
0.0000001
 43
0.0000001
 44
0.0000000001
 40
0.0
 40
0.0
 40
0.0
 40
0.0
 40
0.2279721954
 40
0.4775428193
 40
0.7387711519
 40
1.0
 40
1.0
 40
1.0
 40
1.0
 10
82.3794722448
 20
119.2054582469
 30
0.0
 10
82.5233328707
 20
119.1224021548
 30
0.0
 10
82.8044594578
 20
118.9126131284
 30
0.0
 10
83.1739015461
 20
118.5180972092
 30
0.0
 10
83.4917087016
 20
118.0514149956
 30
0.0
 10
83.6578439113
 20
117.7069610722
 30
0.0
 10
83.7266972123
 20
117.5295024866
 30
0.0
  0
SPLINE
  5
2E5
100
AcDbEntity
  8
0
100
AcDbSpline
 62
7
  6
BYLAYER
 70
0
 71
3
 72
9
 73
5
 74
0
 42
0.0000001
 43
0.0000001
 44
0.0000000001
 40
0.0
 40
0.0
 40
0.0
 40
0.0
 40
0.2571115993
 40
1.0
 40
1.0
 40
1.0
 40
1.0
 10
29.9408130418
 20
98.6137900512
 30
0.0
 10
29.9408130418
 20
97.0947807113
 30
0.0
 10
30.0306089755
 20
91.187429185
 30
0.0
 10
30.4885974521
 20
85.2834679686
 30
0.0
 10
31.067257888
 20
80.9328143787
 30
0.0
  0
SPLINE
  5
2E6
100
AcDbEntity
  8
0
100
AcDbSpline
 62
7
  6
BYLAYER
 70
0
 71
3
 72
9
 73
5
 74
0
 42
0.0000001
 43
0.0000001
 44
0.0000000001
 40
0.0
 40
0.0
 40
0.0
 40
0.0
 40
0.2540036315
 40
1.0
 40
1.0
 40
1.0
 40
1.0
 10
30.3913248784
 20
110.4842846429
 30
0.0
 10
30.3166726991
 20
109.4811568781
 30
0.0
 10
30.0577522427
 20
105.52939971
 30
0.0
 10
29.9408130418
 20
101.5680746886
 30
0.0
 10
29.9408130418
 20
98.6137900512
 30
0.0
  0
SPLINE
  5
2E7
100
AcDbEntity
  8
0
100
AcDbSpline
 62
7
  6
BYLAYER
 70
0
 71
3
 72
9
 73
5
 74
0
 42
0.0000001
 43
0.0000001
 44
0.0000000001
 40
0.0
 40
0.0
 40
0.0
 40
0.0
 40
0.2426605317
 40
1.0
 40
1.0
 40
1.0
 40
1.0
 10
94.1626628455
 20
37.6711667573
 30
0.0
 10
93.9875210655
 20
38.9280624479
 30
0.0
 10
93.3638402222
 20
44.1211699181
 30
0.0
 10
93.1206075382
 20
49.3577596459
 30
0.0
 10
93.1206076337
 20
53.318410946
 30
0.0
  0
SPLINE
  5
2E8
100
AcDbEntity
  8
0
100
AcDbSpline
 62
7
  6
BYLAYER
 70
0
 71
3
 72
11
 73
7
 74
0
 42
0.0000001
 43
0.0000001
 44
0.0000000001
 40
0.0
 40
0.0
 40
0.0
 40
0.0
 40
0.217802755
 40
0.4509154285
 40
0.7103023347
 40
1.0
 40
1.0
 40
1.0
 40
1.0
 10
43.3644976106
 20
141.2041370446
 30
0.0
 10
43.4370621094
 20
141.2460566668
 30
0.0
 10
43.6038153029
 20
141.3065595373
 30
0.0
 10
43.880761979
 20
141.3135274756
 30
0.0
 10
44.175925534
 20
141.2422859403
 30
0.0
 10
44.3679579366
 20
141.1509197924
 30
0.0
 10
44.4644900372
 20
141.0951882189
 30
0.0
  0
SPLINE
  5
2E9
100
AcDbEntity
  8
0
100
AcDbSpline
 62
7
  6
BYLAYER
 70
0
 71
3
 72
9
 73
5
 74
0
 42
0.0000001
 43
0.0000001
 44
0.0000000001
 40
0.0
 40
0.0
 40
0.0
 40
0.0
 40
0.4890534638
 40
1.0
 40
1.0
 40
1.0
 40
1.0
 10
81.6495413571
 20
48.450166025
 30
0.0
 10
81.1379600379
 20
51.741528591
 30
0.0
 10
80.3807996916
 20
58.5187056937
 30
0.0
 10
80.1456096469
 20
65.3322158354
 30
0.0
 10
80.1456096469
 20
68.8122100836
 30
0.0
  0
SPLINE
  5
2EA
100
AcDbEntity
  8
0
100
AcDbSpline
 62
7
  6
BYLAYER
 70
0
 71
3
 72
9
 73
5
 74
0
 42
0.0000001
 43
0.0000001
 44
0.0000000001
 40
0.0
 40
0.0
 40
0.0
 40
0.0
 40
0.2448518042
 40
1.0
 40
1.0
 40
1.0
 40
1.0
 10
80.1456096469
 20
68.8122100836
 30
0.0
 10
80.1456096469
 20
70.096101298
 30
0.0
 10
80.2125624274
 20
75.339521253
 30
0.0
 10
80.5410085496
 20
80.578868666
 30
0.0
 10
80.920193402
 20
84.5203238813
 30
0.0
  0
SPLINE
  5
2EB
100
AcDbEntity
  8
0
100
AcDbSpline
 62
7
  6
BYLAYER
 70
0
 71
3
 72
9
 73
5
 74
0
 42
0.0000001
 43
0.0000001
 44
0.0000000001
 40
0.0
 40
0.0
 40
0.0
 40
0.0
 40
0.2436144307
 40
1.0
 40
1.0
 40
1.0
 40
1.0
 10
93.1204686029
 20
91.6870565817
 30
0.0
 10
93.120398453
 20
93.0589624953
 30
0.0
 10
93.2113716924
 20
98.6902432757
 30
0.0
 10
93.6549683118
 20
104.3143312419
 30
0.0
 10
94.1625892727
 20
108.5435340871
 30
0.0
  0
SPLINE
  5
2EC
100
AcDbEntity
  8
0
100
AcDbSpline
 62
7
  6
BYLAYER
 70
0
 71
3
 72
11
 73
7
 74
0
 42
0.0000001
 43
0.0000001
 44
0.0000000001
 40
0.0
 40
0.0
 40
0.0
 40
0.0
 40
0.2279721954
 40
0.4775428193
 40
0.7387711519
 40
1.0
 40
1.0
 40
1.0
 40
1.0
 10
44.6480973109
 20
140.9891849081
 30
0.0
 10
44.7919579369
 20
140.906128816
 30
0.0
 10
45.0730845239
 20
140.6963397896
 30
0.0
 10
45.4425266123
 20
140.3018238704
 30
0.0
 10
45.7603337678
 20
139.8351416568
 30
0.0
 10
45.9264689775
 20
139.4906877334
 30
0.0
 10
45.9953222785
 20
139.3132291478
 30
0.0
  0
SPLINE
  5
2ED
100
AcDbEntity
  8
0
100
AcDbSpline
 62
7
  6
BYLAYER
 70
0
 71
3
 72
9
 73
5
 74
0
 42
0.0000001
 43
0.0000001
 44
0.0000000001
 40
0.0
 40
0.0
 40
0.0
 40
0.0
 40
0.2457774942
 40
1.0
 40
1.0
 40
1.0
 40
1.0
 10
29.2337094363
 20
98.205544409
 30
0.0
 10
29.2337094363
 20
99.2439253408
 30
0.0
 10
29.2773368874
 20
103.468734768
 30
0.0
 10
29.49218557
 20
107.691450389
 30
0.0
 10
29.7419575818
 20
110.8681473416
 30
0.0
  0
SPLINE
  5
2EE
100
AcDbEntity
  8
0
100
AcDbSpline
 62
7
  6
BYLAYER
 70
0
 71
3
 72
9
 73
5
 74
0
 42
0.0000001
 43
0.0000001
 44
0.0000000001
 40
0.0
 40
0.0
 40
0.0
 40
0.0
 40
0.2430251739
 40
1.0
 40
1.0
 40
1.0
 40
1.0
 10
30.3530432272
 20
80.5204648135
 30
0.0
 10
30.1649790135
 20
81.9441940404
 30
0.0
 10
29.4958795848
 20
87.8161744898
 30
0.0
 10
29.2337094363
 20
93.7323910502
 30
0.0
 10
29.2337094363
 20
98.205544409
 30
0.0
  0
SPLINE
  5
2EF
100
AcDbEntity
  8
0
100
AcDbSpline
 62
7
  6
BYLAYER
 70
0
 71
3
 72
11
 73
7
 74
0
 42
0.0000001
 43
0.0000001
 44
0.0000000001
 40
0.0
 40
0.0
 40
0.0
 40
0.0
 40
0.217802755
 40
0.4509154285
 40
0.7103023347
 40
1.0
 40
1.0
 40
1.0
 40
1.0
 10
81.0958725445
 20
119.4204103834
 30
0.0
 10
81.1684370433
 20
119.4623300056
 30
0.0
 10
81.3351902367
 20
119.5228328761
 30
0.0
 10
81.6121369129
 20
119.5298008144
 30
0.0
 10
81.9073004679
 20
119.4585592791
 30
0.0
 10
82.0993328704
 20
119.3671931312
 30
0.0
 10
82.1958649711
 20
119.3114615577
 30
0.0
  0
ELLIPSE
  5
2F0
100
AcDbEntity
  8
0
100
AcDbEllipse
 62
7
  6
BYLAYER
 10
179.6331522979
 20
142.0248303761
 30
0.0
 11
78.8483442734
 21
141.8767346613
 31
0.0
 40
0.5661462581
 41
-3.8907816315
 42
-3.8664127352
  0
ELLIPSE
  5
2F1
100
AcDbEntity
  8
0
100
AcDbEllipse
 62
7
  6
BYLAYER
 10
179.6331522979
 20
142.0248303761
 30
0.0
 11
78.8483442734
 21
141.8767346613
 31
0.0
 40
0.5661462581
 41
-3.9955890835
 42
-3.9712528136
  0
ELLIPSE
  5
2F2
100
AcDbEntity
  8
0
100
AcDbEllipse
 62
7
  6
BYLAYER
 10
179.6331522979
 20
142.0248303761
 30
0.0
 11
78.8483442734
 21
141.8767346613
 31
0.0
 40
0.5661462581
 41
-3.8383343144
 42
-3.8137024493
  0
ELLIPSE
  5
2F3
100
AcDbEntity
  8
0
100
AcDbEllipse
 62
7
  6
BYLAYER
 10
190.8014064761
 20
135.5769816898
 30
0.0
 11
83.5314176026
 21
139.1716885538
 31
0.0
 40
0.588344076
 41
-3.9763466306
 42
-3.9520103606
  0
ELLIPSE
  5
2F4
100
AcDbEntity
  8
0
100
AcDbEllipse
 62
7
  6
BYLAYER
 10
190.8014064761
 20
135.5769816898
 30
0.0
 11
83.5314176026
 21
139.1716885538
 31
0.0
 40
0.588344076
 41
-3.8190918615
 42
-3.7944599964
  0
ELLIPSE
  5
2F5
100
AcDbEntity
  8
0
100
AcDbEllipse
 62
7
  6
BYLAYER
 10
190.8014064761
 20
135.5769816898
 30
0.0
 11
83.5314176026
 21
139.1716885538
 31
0.0
 40
0.588344076
 41
-3.8715391786
 42
-3.8471702823
  0
ENDSEC
  0
SECTION
  2
OBJECTS
  0
DICTIONARY
  5
C
100
AcDbDictionary
280
0
281
1
  3
ACAD_GROUP
350
D
  3
ACAD_MLINESTYLE
350
17
  3
ACAD_LAYOUT
350
1A
  3
ACAD_PLOTSETTINGS
350
19
  3
ACAD_PLOTSTYLENAME
350
E
  0
DICTIONARY
  5
D
102
{ACAD_REACTORS
330
C
102
}
100
AcDbDictionary
280
0
281
1
  0
ACDBDICTIONARYWDFLT
  5
E
102
{ACAD_REACTORS
330
C
102
}
100
AcDbDictionary
281
1
  3
Normal
350
F
100
AcDbDictionaryWithDefault
340
F
  0
DICTIONARY
  5
17
102
{ACAD_REACTORS
330
C
102
}
100
AcDbDictionary
280
0
281
1
  3
Standard
350
18
  0
DICTIONARY
  5
19
102
{ACAD_REACTORS
330
C
102
}
100
AcDbDictionary
281
1
  0
DICTIONARY
  5
1A
102
{ACAD_REACTORS
330
C
102
}
100
AcDbDictionary
281
1
  3
Model
350
2F6
  3
Layout1
350
2F7
  0
ACDBPLACEHOLDER
  5
F
102
{ACAD_REACTORS
330
E
102
}
  0
MLINESTYLE
  5
18
102
{ACAD_REACTORS
330
17
102
}
100
AcDbMlineStyle
  2
STANDARD
 70
0
  3

 62
256
 51
90.0
 52
90.0
 71
2
 49
0.5
 62
256
  6
BYLAYER
 49
-0.5
 62
256
  6
BYLAYER
  0
LAYOUT
  5
2F6
102
{ACAD_REACTORS
330
1A
102
}
100
AcDbPlotSettings
  1

  2
none_device
  4

  6

 40
0.0
 41
0.0
 42
0.0
 43
0.0
 44
210.0
 45
297.0
 46
0.0
 47
0.0
 48
0.0
 49
0.0
140
0.0
141
0.0
142
1.0
143
1.0
 70
1024
 72
1
 73
0
 74
0
  7

 75
0
147
1.0
148
0.0
149
0.0
100
AcDbLayout
  1
Model
 70
0
 71
0
 10
0.0
 20
0.0
 11
210.0
 21
297.0
 12
0.0
 22
0.0
 32
0.0
 14
0.0
 24
0.0
 34
0.0
 15
0.0
 25
0.0
 35
0.0
146
0.0
 13
0.0
 23
0.0
 33
0.0
 16
1.0
 26
0.0
 36
0.0
 17
0.0
 27
1.0
 37
0.0
 76
0
330
210
345
0
346
0
  0
LAYOUT
  5
2F7
102
{ACAD_REACTORS
330
1A
102
}
100
AcDbPlotSettings
  1

  2
none_device
  4

  6

 40
0.0
 41
0.0
 42
0.0
 43
0.0
 44
210.0
 45
297.0
 46
0.0
 47
0.0
 48
0.0
 49
0.0
140
0.0
141
0.0
142
1.0
143
1.0
 70
0
 72
1
 73
0
 74
0
  7

 75
0
147
1.0
148
0.0
149
0.0
100
AcDbLayout
  1
Layout1
 70
0
 71
1
 10
0.0
 20
0.0
 11
210.0
 21
297.0
 12
0.0
 22
0.0
 32
0.0
 14
0.0
 24
0.0
 34
0.0
 15
0.0
 25
0.0
 35
0.0
146
0.0
 13
0.0
 23
0.0
 33
0.0
 16
1.0
 26
0.0
 36
0.0
 17
0.0
 27
1.0
 37
0.0
 76
0
330
211
345
0
346
0
  0
ENDSEC
  0
EOF
